  0
SECTION
  2
HEADER
  9
$ACADVER
  1
AC1015
  9
$ACADMAINTVER
 70
    20
  9
$DWGCODEPAGE
  3
ANSI_932
  9
$INSBASE
 10
0.0
 20
0.0
 30
0.0
  9
$EXTMIN
 10
0.0
 20
0.0
 30
0.0
  9
$EXTMAX
 10
11880.0
 20
8400.000183812439
 30
0.0
  9
$LIMMIN
 10
0.0
 20
0.0
  9
$LIMMAX
 10
11880.0
 20
8400.0
  9
$ORTHOMODE
 70
     1
  9
$REGENMODE
 70
     1
  9
$FILLMODE
 70
     1
  9
$QTEXTMODE
 70
     0
  9
$MIRRTEXT
 70
     1
  9
$LTSCALE
 40
20.0
  9
$ATTMODE
 70
     1
  9
$TEXTSIZE
 40
0.0
  9
$TRACEWID
 40
0.05
  9
$TEXTSTYLE
  7
STANDARD
  9
$CLAYER
  8
0
  9
$CELTYPE
  6
BYBLOCK
  9
$CECOLOR
 62
   256
  9
$CELTSCALE
 40
1.0
  9
$DISPSILH
 70
     0
  9
$DIMSCALE
 40
20.0
  9
$DIMASZ
 40
0.18
  9
$DIMEXO
 40
0.0625
  9
$DIMDLI
 40
0.38
  9
$DIMRND
 40
0.0
  9
$DIMDLE
 40
0.0
  9
$DIMEXE
 40
0.18
  9
$DIMTP
 40
0.0
  9
$DIMTM
 40
0.0
  9
$DIMTXT
 40
0.18
  9
$DIMCEN
 40
0.09
  9
$DIMTSZ
 40
0.0
  9
$DIMTOL
 70
     0
  9
$DIMLIM
 70
     0
  9
$DIMTIH
 70
     1
  9
$DIMTOH
 70
     1
  9
$DIMSE1
 70
     0
  9
$DIMSE2
 70
     0
  9
$DIMTAD
 70
     0
  9
$DIMZIN
 70
     0
  9
$DIMBLK
  1

  9
$DIMASO
 70
     1
  9
$DIMSHO
 70
     1
  9
$DIMPOST
  1

  9
$DIMAPOST
  1

  9
$DIMALT
 70
     0
  9
$DIMALTD
 70
     2
  9
$DIMALTF
 40
25.4
  9
$DIMLFAC
 40
1.0
  9
$DIMTOFL
 70
     0
  9
$DIMTVP
 40
0.0
  9
$DIMTIX
 70
     0
  9
$DIMSOXD
 70
     0
  9
$DIMSAH
 70
     0
  9
$DIMBLK1
  1

  9
$DIMBLK2
  1

  9
$DIMSTYLE
  2
JAC_DIM
  9
$DIMCLRD
 70
     0
  9
$DIMCLRE
 70
     0
  9
$DIMCLRT
 70
     0
  9
$DIMTFAC
 40
1.0
  9
$DIMGAP
 40
0.09
  9
$DIMJUST
 70
     0
  9
$DIMSD1
 70
     0
  9
$DIMSD2
 70
     0
  9
$DIMTOLJ
 70
     1
  9
$DIMTZIN
 70
     0
  9
$DIMALTZ
 70
     0
  9
$DIMALTTZ
 70
     0
  9
$DIMUPT
 70
     0
  9
$DIMDEC
 70
     4
  9
$DIMTDEC
 70
     4
  9
$DIMALTU
 70
     2
  9
$DIMALTTD
 70
     2
  9
$DIMTXSTY
  7
STANDARD
  9
$DIMAUNIT
 70
     0
  9
$DIMADEC
 70
     0
  9
$DIMALTRND
 40
0.0
  9
$DIMAZIN
 70
     0
  9
$DIMDSEP
 70
    46
  9
$DIMATFIT
 70
     3
  9
$DIMFRAC
 70
     0
  9
$DIMLDRBLK
  1

  9
$DIMLUNIT
 70
     2
  9
$DIMLWD
 70
    -2
  9
$DIMLWE
 70
    -2
  9
$DIMTMOVE
 70
     0
  9
$LUNITS
 70
     2
  9
$LUPREC
 70
     4
  9
$SKETCHINC
 40
0.1
  9
$FILLETRAD
 40
0.0
  9
$AUNITS
 70
     0
  9
$AUPREC
 70
     0
  9
$MENU
  1
.
  9
$ELEVATION
 40
0.0
  9
$PELEVATION
 40
0.0
  9
$THICKNESS
 40
0.0
  9
$LIMCHECK
 70
     0
  9
$CHAMFERA
 40
0.5
  9
$CHAMFERB
 40
0.5
  9
$CHAMFERC
 40
1.0
  9
$CHAMFERD
 40
0.0
  9
$SKPOLY
 70
     0
  9
$TDCREATE
 40
2444972.375000000
  9
$TDUCREATE
 40
2444972.000000000
  9
$TDUPDATE
 40
2458740.533252929
  9
$TDUUPDATE
 40
2458740.158252929
  9
$TDINDWG
 40
0.0097031366
  9
$TDUSRTIMER
 40
0.0097030556
  9
$USRTIMER
 70
     1
  9
$ANGBASE
 50
0.0
  9
$ANGDIR
 70
     0
  9
$PDMODE
 70
     0
  9
$PDSIZE
 40
40.0
  9
$PLINEWID
 40
0.0
  9
$SPLFRAME
 70
     0
  9
$SPLINETYPE
 70
     6
  9
$SPLINESEGS
 70
     8
  9
$HANDSEED
  5
62AB3
  9
$SURFTAB1
 70
     6
  9
$SURFTAB2
 70
     6
  9
$SURFTYPE
 70
     6
  9
$SURFU
 70
     6
  9
$SURFV
 70
     6
  9
$UCSBASE
  2

  9
$UCSNAME
  2

  9
$UCSORG
 10
0.0
 20
0.0
 30
0.0
  9
$UCSXDIR
 10
1.0
 20
0.0
 30
0.0
  9
$UCSYDIR
 10
0.0
 20
1.0
 30
0.0
  9
$UCSORTHOREF
  2

  9
$UCSORTHOVIEW
 70
     0
  9
$UCSORGTOP
 10
0.0
 20
0.0
 30
0.0
  9
$UCSORGBOTTOM
 10
0.0
 20
0.0
 30
0.0
  9
$UCSORGLEFT
 10
0.0
 20
0.0
 30
0.0
  9
$UCSORGRIGHT
 10
0.0
 20
0.0
 30
0.0
  9
$UCSORGFRONT
 10
0.0
 20
0.0
 30
0.0
  9
$UCSORGBACK
 10
0.0
 20
0.0
 30
0.0
  9
$PUCSBASE
  2

  9
$PUCSNAME
  2

  9
$PUCSORG
 10
0.0
 20
0.0
 30
0.0
  9
$PUCSXDIR
 10
1.0
 20
0.0
 30
0.0
  9
$PUCSYDIR
 10
0.0
 20
1.0
 30
0.0
  9
$PUCSORTHOREF
  2

  9
$PUCSORTHOVIEW
 70
     0
  9
$PUCSORGTOP
 10
0.0
 20
0.0
 30
0.0
  9
$PUCSORGBOTTOM
 10
0.0
 20
0.0
 30
0.0
  9
$PUCSORGLEFT
 10
0.0
 20
0.0
 30
0.0
  9
$PUCSORGRIGHT
 10
0.0
 20
0.0
 30
0.0
  9
$PUCSORGFRONT
 10
0.0
 20
0.0
 30
0.0
  9
$PUCSORGBACK
 10
0.0
 20
0.0
 30
0.0
  9
$USERI1
 70
     0
  9
$USERI2
 70
     0
  9
$USERI3
 70
     0
  9
$USERI4
 70
     0
  9
$USERI5
 70
     0
  9
$USERR1
 40
0.0
  9
$USERR2
 40
0.0
  9
$USERR3
 40
0.0
  9
$USERR4
 40
0.0
  9
$USERR5
 40
0.0
  9
$WORLDVIEW
 70
     1
  9
$SHADEDGE
 70
     3
  9
$SHADEDIF
 70
    70
  9
$TILEMODE
 70
     1
  9
$MAXACTVP
 70
    64
  9
$PINSBASE
 10
0.0
 20
0.0
 30
0.0
  9
$PLIMCHECK
 70
     0
  9
$PEXTMIN
 10
1.000000000000000E+20
 20
1.000000000000000E+20
 30
1.000000000000000E+20
  9
$PEXTMAX
 10
-1.000000000000000E+20
 20
-1.000000000000000E+20
 30
-1.000000000000000E+20
  9
$PLIMMIN
 10
0.0
 20
0.0
  9
$PLIMMAX
 10
12.0
 20
9.0
  9
$UNITMODE
 70
     0
  9
$VISRETAIN
 70
     0
  9
$PLINEGEN
 70
     0
  9
$PSLTSCALE
 70
     1
  9
$TREEDEPTH
 70
  3020
  9
$CMLSTYLE
  2
STANDARD
  9
$CMLJUST
 70
     0
  9
$CMLSCALE
 40
1.0
  9
$PROXYGRAPHICS
 70
     1
  9
$MEASUREMENT
 70
     0
  9
$CELWEIGHT
370
    -1
  9
$ENDCAPS
280
     0
  9
$JOINSTYLE
280
     0
  9
$LWDISPLAY
290
     0
  9
$INSUNITS
 70
     0
  9
$HYPERLINKBASE
  1

  9
$STYLESHEET
  1
MONOCHROME.CTB
  9
$XEDIT
290
     1
  9
$CEPSNTYPE
380
     0
  9
$PSTYLEMODE
290
     1
  9
$FINGERPRINTGUID
  2
{5F082321-0195-11D3-BDFB-0060B0CD5109}
  9
$VERSIONGUID
  2
{63FFB0CC-85AA-448F-9D99-F71BF3E22756}
  9
$EXTNAMES
290
     1
  9
$PSVPSCALE
 40
0.0
  9
$OLESTARTUP
290
     0
  0
ENDSEC
  0
SECTION
  2
CLASSES
  0
CLASS
  1
SCALE
  2
AcDbScale
  3
ObjectDBX Classes
 90
     1153
280
     0
281
     0
  0
CLASS
  1
DICTIONARYVAR
  2
AcDbDictionaryVar
  3
ObjectDBX Classes
 90
        0
280
     0
281
     0
  0
CLASS
  1
ACDBPLACEHOLDER
  2
AcDbPlaceHolder
  3
ObjectDBX Classes
 90
        0
280
     0
281
     0
  0
CLASS
  1
LAYOUT
  2
AcDbLayout
  3
ObjectDBX Classes
 90
        0
280
     0
281
     0
  0
CLASS
  1
ACDBDICTIONARYWDFLT
  2
AcDbDictionaryWithDefault
  3
ObjectDBX Classes
 90
        0
280
     0
281
     0
  0
CLASS
  1
MATERIAL
  2
AcDbMaterial
  3
ObjectDBX Classes
 90
     1153
280
     0
281
     0
  0
CLASS
  1
VISUALSTYLE
  2
AcDbVisualStyle
  3
ObjectDBX Classes
 90
     4095
280
     0
281
     0
  0
CLASS
  1
TABLESTYLE
  2
AcDbTableStyle
  3
ObjectDBX Classes
 90
     4095
280
     0
281
     0
  0
CLASS
  1
MLEADERSTYLE
  2
AcDbMLeaderStyle
  3
ACDB_MLEADERSTYLE_CLASS
 90
     4095
280
     0
281
     0
  0
CLASS
  1
CELLSTYLEMAP
  2
AcDbCellStyleMap
  3
ObjectDBX Classes
 90
     1152
280
     0
281
     0
  0
CLASS
  1
SORTENTSTABLE
  2
AcDbSortentsTable
  3
ObjectDBX Classes
 90
    32768
280
     0
281
     0
  0
CLASS
  1
AEC_REFEDIT_STATUS_TRACKER
  2
AecDbRefEditStatusTracker
  3
AecArchBase50|Product Desc: Autodesk Architectural Desktop 2007 |Company: Autodesk,Inc. |WEB Address: www.autodesk.com
 90
      129
280
     0
281
     0
  0
CLASS
  1
NPOCOLLECTION
  2
AcDbImpNonPersistentObjectsCollection
  3
ObjectDBX Classes
 90
     1153
280
     0
281
     0
  0
ENDSEC
  0
SECTION
  2
TABLES
  0
TABLE
  2
VPORT
  5
190
330
0
100
AcDbSymbolTable
 70
     1
  0
VPORT
  5
191
330
190
100
AcDbSymbolTableRecord
100
AcDbViewportTableRecord
  2
*ACTIVE
 70
     0
 10
0.0
 20
0.0
 11
1.0
 21
1.0
 12
10322.36437728679
 22
4262.327237841318
 13
0.0
 23
0.0
 14
1.0
 24
1.0
 15
0.0
 25
0.0
 16
0.0
 26
0.0
 36
1.0
 17
0.0
 27
0.0
 37
0.0
 40
10559.09211412435
 41
2.349009900990099
 42
50.0
 43
0.0
 44
0.0
 50
0.0
 51
0.0
 71
     0
 72
  1000
 73
     1
 74
     1
 75
     0
 76
     0
 77
     0
 78
     0
281
     0
 65
     1
110
0.0
120
0.0
130
0.0
111
1.0
121
0.0
131
0.0
112
0.0
122
1.0
132
0.0
 79
     0
146
0.0
  0
ENDTAB
  0
TABLE
  2
LTYPE
  5
1F4
330
0
100
AcDbSymbolTable
 70
     6
  0
LTYPE
  5
1F5
330
1F4
100
AcDbSymbolTableRecord
100
AcDbLinetypeTableRecord
  2
BYBLOCK
 70
     0
  3

 72
    65
 73
     0
 40
0.0
  0
LTYPE
  5
1F6
330
1F4
100
AcDbSymbolTableRecord
100
AcDbLinetypeTableRecord
  2
BYLAYER
 70
     0
  3

 72
    65
 73
     0
 40
0.0
  0
LTYPE
  5
1F7
330
1F4
100
AcDbSymbolTableRecord
100
AcDbLinetypeTableRecord
  2
CONTINUOUS
 70
     0
  3
SolidLine
 72
    65
 73
     0
 40
0.0
  0
LTYPE
  5
1F8
330
1F4
100
AcDbSymbolTableRecord
100
AcDbLinetypeTableRecord
  2
DOT
 70
     0
  3
--  --  --  --  --  --  --  --     
 72
    65
 73
     2
 40
3.0
 49
1.0
 74
     0
 49
-2.0
 74
     0
  0
LTYPE
  5
1FA
330
1F4
100
AcDbSymbolTableRecord
100
AcDbLinetypeTableRecord
  2
DASHED2
 70
     0
  3
------  ------  ------  ------ 
 72
    65
 73
     2
 40
10.0
 49
4.0
 74
     0
 49
-6.0
 74
     0
  0
LTYPE
  5
1FC
330
1F4
100
AcDbSymbolTableRecord
100
AcDbLinetypeTableRecord
  2
CENTER2
 70
     0
  3
----------  --  ----------  -- 
 72
    65
 73
     4
 40
17.0
 49
12.0
 74
     0
 49
-5.0
 74
     0
 49
2.0
 74
     0
 49
-5.0
 74
     0
  0
LTYPE
  5
1FE
330
1F4
100
AcDbSymbolTableRecord
100
AcDbLinetypeTableRecord
  2
PHANTOM2
 70
     0
  3
--------  -  -  --------  -  -
 72
    65
 73
     6
 40
20.0
 49
6.0
 74
     0
 49
-5.0
 74
     0
 49
2.0
 74
     0
 49
-5.0
 74
     0
 49
2.0
 74
     0
 49
-5.0
 74
     0
  0
LTYPE
  5
1FF
330
1F4
100
AcDbSymbolTableRecord
100
AcDbLinetypeTableRecord
  2
HIDDEN
 70
     0
  3
-   -   -   -   -   -   -   -   
 72
    65
 73
     2
 40
3.0
 49
0.5
 74
     0
 49
-2.5
 74
     0
  0
ENDTAB
  0
TABLE
  2
LAYER
  5
40C
330
0
100
AcDbSymbolTable
 70
    14
  0
LAYER
  5
40D
102
{ACAD_XDICTIONARY
360
62A51
102
}
330
40C
100
AcDbSymbolTableRecord
100
AcDbLayerTableRecord
  2
0
 70
     0
 62
     7
  6
CONTINUOUS
370
    -3
390
62A3B
  0
LAYER
  5
40E
102
{ACAD_XDICTIONARY
360
62A53
102
}
330
40C
100
AcDbSymbolTableRecord
100
AcDbLayerTableRecord
  2
0-F1TEXT
 70
     0
 62
     7
  6
CONTINUOUS
370
    -3
390
62A3B
  0
LAYER
  5
40F
102
{ACAD_XDICTIONARY
360
62A55
102
}
330
40C
100
AcDbSymbolTableRecord
100
AcDbLayerTableRecord
  2
2-03BODL
 70
     0
 62
     7
  6
CONTINUOUS
370
    -3
390
62A3B
  0
LAYER
  5
410
102
{ACAD_XDICTIONARY
360
62A57
102
}
330
40C
100
AcDbSymbolTableRecord
100
AcDbLayerTableRecord
  2
2-13HIDDEN
 70
     0
 62
     7
  6
CONTINUOUS
370
    -3
390
62A3B
  0
LAYER
  5
411
102
{ACAD_XDICTIONARY
360
62A59
102
}
330
40C
100
AcDbSymbolTableRecord
100
AcDbLayerTableRecord
  2
2-23CENTER
 70
     0
 62
     7
  6
CONTINUOUS
370
    -3
390
62A3B
  0
LAYER
  5
412
102
{ACAD_XDICTIONARY
360
62A5B
102
}
330
40C
100
AcDbSymbolTableRecord
100
AcDbLayerTableRecord
  2
2-43THIN
 70
     0
 62
     7
  6
CONTINUOUS
370
    -3
390
62A3B
  0
LAYER
  5
413
102
{ACAD_XDICTIONARY
360
62A5D
102
}
330
40C
100
AcDbSymbolTableRecord
100
AcDbLayerTableRecord
  2
2-53DIM
 70
     0
 62
     7
  6
CONTINUOUS
370
    -3
390
62A3B
  0
LAYER
  5
414
102
{ACAD_XDICTIONARY
360
62A5F
102
}
330
40C
100
AcDbSymbolTableRecord
100
AcDbLayerTableRecord
  2
2-7搬入用開口
 70
     0
 62
     7
  6
CONTINUOUS
370
    -3
390
62A3B
  0
LAYER
  5
415
102
{ACAD_XDICTIONARY
360
62A61
102
}
330
40C
100
AcDbSymbolTableRecord
100
AcDbLayerTableRecord
  2
2-8工区
 70
     0
 62
     7
  6
CONTINUOUS
370
    -3
390
62A3B
  0
LAYER
  5
416
102
{ACAD_XDICTIONARY
360
62A63
102
}
330
40C
100
AcDbSymbolTableRecord
100
AcDbLayerTableRecord
  2
C-D
 70
     0
 62
     7
  6
CONTINUOUS
370
    -3
390
62A3B
  0
LAYER
  5
417
102
{ACAD_XDICTIONARY
360
62A65
102
}
330
40C
100
AcDbSymbolTableRecord
100
AcDbLayerTableRecord
  2
C-F
 70
     0
 62
     7
  6
CONTINUOUS
370
    -3
390
62A3B
  0
LAYER
  5
418
102
{ACAD_XDICTIONARY
360
62A67
102
}
330
40C
100
AcDbSymbolTableRecord
100
AcDbLayerTableRecord
  2
F-F4PAPAER
 70
     0
 62
     7
  6
CONTINUOUS
370
    -3
390
62A3B
  0
LAYER
  5
419
102
{ACAD_XDICTIONARY
360
62A69
102
}
330
40C
100
AcDbSymbolTableRecord
100
AcDbLayerTableRecord
  2
F-E_J_ADD
 70
     0
 62
    -7
  6
CONTINUOUS
290
     0
370
    -3
390
62A3B
  0
LAYER
  5
62A71
102
{ACAD_XDICTIONARY
360
62A72
102
}
330
40C
100
AcDbSymbolTableRecord
100
AcDbLayerTableRecord
  2
2-5DIM
 70
     0
 62
     7
  6
CONTINUOUS
370
    -3
390
62A3B
  0
ENDTAB
  0
TABLE
  2
STYLE
  5
200
330
0
100
AcDbSymbolTable
 70
     1
  0
STYLE
  5
201
330
200
100
AcDbSymbolTableRecord
100
AcDbTextStyleTableRecord
  2
STANDARD
 70
     0
 40
0.0
 41
1.0
 50
0.0
 71
     0
 42
0.0
  3
txt.shx
  4
extfont.shx
  0
ENDTAB
  0
TABLE
  2
VIEW
  5
206
330
0
100
AcDbSymbolTable
 70
     0
  0
ENDTAB
  0
TABLE
  2
UCS
  5
207
330
0
100
AcDbSymbolTable
 70
     0
  0
ENDTAB
  0
TABLE
  2
APPID
  5
208
330
0
100
AcDbSymbolTable
 70
     4
  0
APPID
  5
209
330
208
100
AcDbSymbolTableRecord
100
AcDbRegAppTableRecord
  2
ACAD
 70
     0
  0
APPID
  5
62A39
330
208
100
AcDbSymbolTableRecord
100
AcDbRegAppTableRecord
  2
ACAD_MLEADERVER
 70
     0
  0
APPID
  5
62A73
330
208
100
AcDbSymbolTableRecord
100
AcDbRegAppTableRecord
  2
ACAD_PSEXT
 70
     0
  0
APPID
  5
62A7F
330
208
100
AcDbSymbolTableRecord
100
AcDbRegAppTableRecord
  2
ACAD_EXEMPT_FROM_CAD_STANDARDS
 70
     0
  0
ENDTAB
  0
TABLE
  2
DIMSTYLE
  5
403
330
0
100
AcDbSymbolTable
 70
     1
100
AcDbDimStyleTable
 71
     1
340
404
  0
DIMSTYLE
105
404
330
403
100
AcDbSymbolTableRecord
100
AcDbDimStyleTableRecord
  2
JAC_DIM
 70
     0
 41
40.0
 42
0.0
 44
0.0
 73
     0
 74
     0
 77
     1
 78
     8
 79
     2
140
80.0
271
     0
272
     0
283
     0
340
201
  0
ENDTAB
  0
TABLE
  2
BLOCK_RECORD
  5
405
330
0
100
AcDbSymbolTable
 70
     3
  0
BLOCK_RECORD
  5
406
102
{ACAD_XDICTIONARY
360
62A00
102
}
330
405
100
AcDbSymbolTableRecord
100
AcDbBlockTableRecord
  2
*MODEL_SPACE
340
62996
  0
BLOCK_RECORD
  5
407
102
{ACAD_XDICTIONARY
360
62A02
102
}
330
405
100
AcDbSymbolTableRecord
100
AcDbBlockTableRecord
  2
*PAPER_SPACE
340
62997
  0
BLOCK_RECORD
  5
409
330
405
100
AcDbSymbolTableRecord
100
AcDbBlockTableRecord
  2
LAT-R_0
340
0
102
{BLKREFS
331
1298
331
12F6
331
1312
331
139A
331
139B
331
13A5
331
13AB
331
13AD
331
13AF
102
}
  0
BLOCK_RECORD
  5
40A
330
405
100
AcDbSymbolTableRecord
100
AcDbBlockTableRecord
  2
CCG-L30-T_1
340
0
102
{BLKREFS
331
1297
331
1299
331
12F7
331
1314
331
1315
331
1318
331
1399
331
139C
331
139D
331
13A3
331
13A6
331
13AC
331
13AE
331
13B0
102
}
  0
BLOCK_RECORD
  5
40B
330
405
100
AcDbSymbolTableRecord
100
AcDbBlockTableRecord
  2
012_3
340
0
102
{BLKREFS
331
60C
331
1313
331
1398
331
139E
331
13A4
102
}
  0
ENDTAB
  0
ENDSEC
  0
SECTION
  2
BLOCKS
  0
BLOCK
  5
41A
330
406
100
AcDbEntity
  8
0
100
AcDbBlockBegin
  2
*MODEL_SPACE
 70
     0
 10
0.0
 20
0.0
 30
0.0
  3
*MODEL_SPACE
  1

  0
ENDBLK
  5
41B
330
406
100
AcDbEntity
  8
0
100
AcDbBlockEnd
  0
BLOCK
  5
41C
330
407
100
AcDbEntity
 67
     1
  8
0
100
AcDbBlockBegin
  2
*PAPER_SPACE
 70
     0
 10
0.0
 20
0.0
 30
0.0
  3
*PAPER_SPACE
  1

  0
ENDBLK
  5
41D
330
407
100
AcDbEntity
 67
     1
  8
0
100
AcDbBlockEnd
  0
BLOCK
  5
424
330
409
100
AcDbEntity
  8
0
100
AcDbBlockBegin
  2
LAT-R_0
 70
     0
 10
0.0
 20
0.0
 30
0.0
  3
LAT-R_0
  1

  0
LINE
  5
425
330
409
100
AcDbEntity
  8
C-D
  6
Continuous
 62
     7
100
AcDbLine
 10
-53.1927332
 20
50.49600002665499
 30
0.0
 11
-80.0
 21
50.49600002665499
 31
0.0
  0
LINE
  5
426
330
409
100
AcDbEntity
  8
C-D
  6
Continuous
 62
     7
100
AcDbLine
 10
-58.67970079999999
 20
60.00000002665499
 30
0.0
 11
-80.6
 21
60.00000002665499
 31
0.0
  0
LINE
  5
427
330
409
100
AcDbEntity
  8
C-D
  6
Continuous
 62
     7
100
AcDbLine
 10
-40.0
 20
-50.495999973345
 30
0.0
 11
-66.80680839999999
 21
-50.495999973345
 31
0.0
  0
LINE
  5
428
330
409
100
AcDbEntity
  8
C-D
  6
Continuous
 62
     7
100
AcDbLine
 10
-39.4
 20
-59.99999997334501
 30
0.0
 11
-61.31967120000001
 21
-59.99999997334501
 31
0.0
  0
ENDBLK
  5
429
330
409
100
AcDbEntity
  8
0
100
AcDbBlockEnd
  0
BLOCK
  5
42A
330
40A
100
AcDbEntity
  8
0
100
AcDbBlockBegin
  2
CCG-L30-T_1
 70
     0
 10
0.0
 20
0.0
 30
0.0
  3
CCG-L30-T_1
  1

  0
LINE
  5
42B
330
40A
100
AcDbEntity
  8
C-F
  6
CENTER2
 62
     3
100
AcDbLine
 10
163.7485904
 20
-166.064365973344
 30
0.0
 11
144.903516
 21
-198.704992373345
 31
0.0
  0
LINE
  5
42C
330
40A
100
AcDbEntity
  8
C-F
  6
Continuous
 62
     7
100
AcDbLine
 10
162.0331564
 20
-173.907590773345
 30
0.0
 11
239.8840052
 21
-218.854799173345
 31
0.0
  0
LINE
  5
42D
330
40A
100
AcDbEntity
  8
C-F
  6
Continuous
 62
     7
100
AcDbLine
 10
165.8531564
 20
-167.291156773344
 30
0.0
 11
243.7040051999999
 21
-212.238365173345
 31
0.0
  0
LINE
  5
42E
330
40A
100
AcDbEntity
  8
C-F
  6
Continuous
 62
     7
100
AcDbLine
 10
158.35467
 20
-171.806909973345
 30
0.0
 11
147.17467
 21
-191.171237973344
 31
0.0
  0
LINE
  5
42F
330
40A
100
AcDbEntity
  8
C-F
  6
Continuous
 62
     7
100
AcDbLine
 10
161.4723616
 20
-173.606909973345
 30
0.0
 11
150.2923616
 21
-192.971237973345
 31
0.0
  0
ARC
  5
430
330
40A
100
AcDbEntity
  8
C-F
  6
Continuous
 62
     7
100
AcDbCircle
 10
234.2840052
 20
-228.554283973344
 30
0.0
 40
18.84
100
AcDbArc
 50
240.0
 51
420.0000000000001
  0
ARC
  5
431
330
40A
100
AcDbEntity
  8
C-F
  6
Continuous
 62
     7
100
AcDbCircle
 10
234.2840052
 20
-228.554283973344
 30
0.0
 40
11.2
100
AcDbArc
 50
240.0
 51
420.0000000000001
  0
LINE
  5
432
330
40A
100
AcDbEntity
  8
C-F
  6
Continuous
 62
     7
100
AcDbLine
 10
69.62515639999999
 20
-146.421099173344
 30
0.0
 11
228.6840052
 21
-238.253768373345
 31
0.0
  0
LINE
  5
433
330
40A
100
AcDbEntity
  8
C-F
  6
Continuous
 62
     7
100
AcDbLine
 10
65.8051564
 20
-153.037533173344
 30
0.0
 11
224.8640052
 21
-244.870202373345
 31
0.0
  0
ARC
  5
434
330
40A
100
AcDbEntity
  8
C-F
  6
Continuous
 62
     7
100
AcDbCircle
 10
312.0331564
 20
85.900030426656
 30
0.0
 40
292.36
100
AcDbArc
 50
210.0
 51
240.0
  0
ARC
  5
435
330
40A
100
AcDbEntity
  8
C-F
  6
Continuous
 62
     7
100
AcDbCircle
 10
312.0331564
 20
85.900030426656
 30
0.0
 40
300.0
100
AcDbArc
 50
210.0
 51
240.0
  0
LINE
  5
436
330
40A
100
AcDbEntity
  8
C-F
  6
Continuous
 62
     7
100
AcDbLine
 10
-140.154254
 20
216.391600026656
 30
0.0
 11
68.8931056
 21
-145.689048373345
 31
0.0
  0
LINE
  5
437
330
40A
100
AcDbEntity
  8
C-F
  6
Continuous
 62
     7
100
AcDbLine
 10
-146.7658376
 20
212.574373226655
 30
0.0
 11
62.2766716
 21
-149.509048373345
 31
0.0
  0
LINE
  5
438
330
40A
100
AcDbEntity
  8
C-F
  6
DASHED2
 62
     3
100
AcDbLine
 10
66.963894
 20
-83.25179677334501
 30
0.0
 11
76.90701119999999
 21
-100.489539973345
 31
0.0
  0
LINE
  5
439
330
40A
100
AcDbEntity
  8
C-F
  6
DASHED2
 62
     3
100
AcDbLine
 10
66.963894
 20
-83.25179677334501
 30
0.0
 11
79.55030159999998
 21
-98.794715973345
 31
0.0
  0
LINE
  5
43A
330
40A
100
AcDbEntity
  8
C-F
  6
DASHED2
 62
     3
100
AcDbLine
 10
67.46126719999999
 20
-82.84903197334399
 30
0.0
 11
80.04767519999999
 21
-98.391951173344
 31
0.0
  0
LINE
  5
43B
330
40A
100
AcDbEntity
  8
C-F
  6
DASHED2
 62
     3
100
AcDbLine
 10
66.90701119999999
 20
-83.169031973345
 30
0.0
 11
67.46126719999999
 21
-82.84903197334399
 31
0.0
  0
LINE
  5
43C
330
40A
100
AcDbEntity
  8
C-F
  6
DASHED2
 62
     3
100
AcDbLine
 10
60.8128376
 20
-131.693613973345
 30
0.0
 11
58.0164036
 21
-134.490047973345
 31
0.0
  0
LINE
  5
43D
330
40A
100
AcDbEntity
  8
C-F
  6
DASHED2
 62
     3
100
AcDbLine
 10
58.0164036
 20
-134.490047973345
 30
0.0
 11
61.5066828
 21
-137.980327173345
 31
0.0
  0
LINE
  5
43E
330
40A
100
AcDbEntity
  8
C-F
  6
DASHED2
 62
     3
100
AcDbLine
 10
58.0164036
 20
-134.490047973345
 30
0.0
 11
58.57065999999999
 21
-134.170047973345
 31
0.0
  0
LINE
  5
43F
330
40A
100
AcDbEntity
  8
C-F
  6
DASHED2
 62
     3
100
AcDbLine
 10
76.90701119999999
 20
-100.489539973345
 30
0.0
 11
79.55030159999998
 21
-98.794715973345
 31
0.0
  0
LINE
  5
440
330
40A
100
AcDbEntity
  8
C-F
  6
DASHED2
 62
     3
100
AcDbLine
 10
79.55030159999998
 20
-98.794715973345
 30
0.0
 11
80.04767519999999
 21
-98.391951173344
 31
0.0
  0
ARC
  5
441
330
40A
100
AcDbEntity
  8
C-F
  6
DASHED2
 62
     3
100
AcDbCircle
 10
64.33511
 20
-135.151899973345
 30
0.0
 40
4.0
100
AcDbArc
 50
225.0
 51
280.712
  0
LINE
  5
442
330
40A
100
AcDbEntity
  8
C-F
  6
CENTER2
 62
     3
100
AcDbLine
 10
28.3015348
 20
16.339898826656
 30
0.0
 11
-27.540094
 21
-15.900280773345
 31
0.0
  0
LINE
  5
443
330
40A
100
AcDbEntity
  8
C-F
  6
CENTER2
 62
     3
100
AcDbLine
 10
-15.1850264
 20
52.662989626655
 30
0.0
 11
-38.0153792
 21
39.481879226655
 31
0.0
  0
LINE
  5
444
330
40A
100
AcDbEntity
  8
C-F
  6
CENTER2
 62
     3
100
AcDbLine
 10
-38.3826424
 20
52.48281642665499
 30
0.0
 11
24.21879280000001
 21
-55.95017477334501
 31
0.0
  0
LINE
  5
445
330
40A
100
AcDbEntity
  8
C-F
  6
CENTER2
 62
     3
100
AcDbLine
 10
38.013456
 20
-39.482989573345
 30
0.0
 11
15.1846208
 21
-52.663223573344
 31
0.0
  0
LINE
  5
446
330
40A
100
AcDbEntity
  8
C-F
  6
CENTER2
 62
     3
100
AcDbLine
 10
-26.2582868
 20
59.482816426655
 30
0.0
 11
36.3431484
 21
-48.950174773344
 31
0.0
  0
LINE
  5
447
330
40A
100
AcDbEntity
  8
C-F
  6
CENTER2
 62
     3
100
AcDbLine
 10
33.0
 20
61.800000026655
 30
0.0
 11
33.0
 21
56.52000002665499
 31
0.0
  0
LINE
  5
448
330
40A
100
AcDbEntity
  8
C-F
  6
CENTER2
 62
     3
100
AcDbLine
 10
33.0
 20
61.800000026655
 30
0.0
 11
33.0
 21
56.52000002665499
 31
0.0
  0
LINE
  5
449
330
40A
100
AcDbEntity
  8
C-F
  6
CENTER2
 62
     3
100
AcDbLine
 10
42.0
 20
-45.799999973345
 30
0.0
 11
36.72
 21
-45.799999973345
 31
0.0
  0
LINE
  5
44A
330
40A
100
AcDbEntity
  8
C-F
  6
CENTER2
 62
     3
100
AcDbLine
 10
33.0
 20
-56.519999973345
 30
0.0
 11
33.0
 21
-61.799999973344
 31
0.0
  0
LINE
  5
44B
330
40A
100
AcDbEntity
  8
C-F
  6
CENTER2
 62
     3
100
AcDbLine
 10
-33.0
 20
61.800000026655
 30
0.0
 11
-33.0
 21
56.52000002665499
 31
0.0
  0
LINE
  5
44C
330
40A
100
AcDbEntity
  8
C-F
  6
CENTER2
 62
     3
100
AcDbLine
 10
-36.72
 20
45.80000002665499
 30
0.0
 11
-42.0
 21
45.80000002665499
 31
0.0
  0
LINE
  5
44D
330
40A
100
AcDbEntity
  8
C-F
  6
CENTER2
 62
     3
100
AcDbLine
 10
-33.0
 20
-56.519999973345
 30
0.0
 11
-33.0
 21
-61.799999973344
 31
0.0
  0
LINE
  5
44E
330
40A
100
AcDbEntity
  8
C-F
  6
Continuous
 62
     7
100
AcDbLine
 10
-30.8427764
 20
41.903008426656
 30
0.0
 11
-31.58754760000001
 21
43.192989626655
 31
0.0
  0
LINE
  5
44F
330
40A
100
AcDbEntity
  8
C-F
  6
Continuous
 62
     7
100
AcDbLine
 10
-32.9905196
 20
40.663008426656
 30
0.0
 11
-33.7352904
 21
41.95298962665598
 31
0.0
  0
LINE
  5
450
330
40A
100
AcDbEntity
  8
C-F
  6
Continuous
 62
     7
100
AcDbLine
 10
-18.7184208
 20
48.90300842665499
 30
0.0
 11
-19.463192
 21
50.192989626655
 31
0.0
  0
LINE
  5
451
330
40A
100
AcDbEntity
  8
C-F
  6
Continuous
 62
     7
100
AcDbLine
 10
-20.866164
 20
47.663008426655
 30
0.0
 11
-21.6109348
 21
48.95298962665499
 31
0.0
  0
LINE
  5
452
330
40A
100
AcDbEntity
  8
C-F
  6
Continuous
 62
     7
100
AcDbLine
 10
22.3557056
 20
-50.242970773345
 30
0.0
 11
21.6109348
 21
-48.952989573345
 31
0.0
  0
LINE
  5
453
330
40A
100
AcDbEntity
  8
C-F
  6
Continuous
 62
     7
100
AcDbLine
 10
20.2079628
 20
-51.482970773345
 30
0.0
 11
19.4631916
 21
-50.192989573345
 31
0.0
  0
LINE
  5
454
330
40A
100
AcDbEntity
  8
C-F
  6
Continuous
 62
     7
100
AcDbLine
 10
34.4800612
 20
-43.24297077334398
 30
0.0
 11
33.7352904
 21
-41.952989573344
 31
0.0
  0
LINE
  5
455
330
40A
100
AcDbEntity
  8
C-F
  6
Continuous
 62
     7
100
AcDbLine
 10
32.3323184
 20
-44.482970773345
 30
0.0
 11
31.5875472
 21
-43.192989573345
 31
0.0
  0
LINE
  5
456
330
40A
100
AcDbEntity
  8
C-F
  6
Continuous
 62
     7
100
AcDbLine
 10
16.7510656
 20
-70.65395237334501
 30
0.0
 11
-35.4
 21
-70.65395237334501
 31
0.0
  0
LINE
  5
457
330
40A
100
AcDbEntity
  8
C-F
  6
Continuous
 62
     7
100
AcDbLine
 10
10.4847268
 20
-59.799999973345
 30
0.0
 11
-39.4
 21
-59.799999973345
 31
0.0
  0
LINE
  5
458
330
40A
100
AcDbEntity
  8
C-F
  6
Continuous
 62
     7
100
AcDbLine
 10
-16.752766
 20
70.65395242665498
 30
0.0
 11
35.4
 21
70.65395242665498
 31
0.0
  0
LINE
  5
459
330
40A
100
AcDbEntity
  8
C-F
  6
Continuous
 62
     7
100
AcDbLine
 10
39.4
 20
59.800000026655
 30
0.0
 11
-10.4862336
 21
59.800000026655
 31
0.0
  0
LINE
  5
45A
330
40A
100
AcDbEntity
  8
C-F
  6
Continuous
 62
     7
100
AcDbLine
 10
39.4
 20
66.653952426655
 30
0.0
 11
39.4
 21
58.520000026655
 31
0.0
  0
LINE
  5
45B
330
40A
100
AcDbEntity
  8
C-F
  6
Continuous
 62
     7
100
AcDbLine
 10
32.636
 20
66.50100882665601
 30
0.0
 11
33.36400000000001
 21
66.50100882665601
 31
0.0
  0
LINE
  5
45C
330
40A
100
AcDbEntity
  8
C-F
  6
Continuous
 62
     7
100
AcDbLine
 10
33.36400000000001
 20
64.749008826655
 30
0.0
 11
32.636
 21
64.749008826655
 31
0.0
  0
LINE
  5
45D
330
40A
100
AcDbEntity
  8
C-F
  6
Continuous
 62
     7
100
AcDbLine
 10
40.0
 20
58.520000026655
 30
0.0
 11
38.72
 21
58.520000026655
 31
0.0
  0
LINE
  5
45E
330
40A
100
AcDbEntity
  8
C-F
  6
Continuous
 62
     7
100
AcDbLine
 10
40.0
 20
-27.644721573345
 30
0.0
 11
40.0
 21
58.520000026655
 31
0.0
  0
LINE
  5
45F
330
40A
100
AcDbEntity
  8
C-F
  6
Continuous
 62
     7
100
AcDbLine
 10
-39.4
 20
-66.653952373345
 30
0.0
 11
-39.4
 21
-58.519999973345
 31
0.0
  0
LINE
  5
460
330
40A
100
AcDbEntity
  8
C-F
  6
Continuous
 62
     7
100
AcDbLine
 10
-38.72
 20
-58.519999973345
 30
0.0
 11
-40.0
 21
-58.519999973345
 31
0.0
  0
LINE
  5
461
330
40A
100
AcDbEntity
  8
C-F
  6
Continuous
 62
     7
100
AcDbLine
 10
-33.36400000000001
 20
-64.749008773344
 30
0.0
 11
-32.636
 21
-64.749008773344
 31
0.0
  0
LINE
  5
462
330
40A
100
AcDbEntity
  8
C-F
  6
Continuous
 62
     7
100
AcDbLine
 10
-32.636
 20
-66.50100877334501
 30
0.0
 11
-33.36400000000001
 21
-66.50100877334501
 31
0.0
  0
LINE
  5
463
330
40A
100
AcDbEntity
  8
C-F
  6
Continuous
 62
     7
100
AcDbLine
 10
-40.0
 20
-58.519999973345
 30
0.0
 11
-40.0
 21
27.644810826656
 31
0.0
  0
ARC
  5
464
330
40A
100
AcDbEntity
  8
C-F
  6
Continuous
 62
     7
100
AcDbCircle
 10
-30.6614192
 20
39.108888026655
 30
0.0
 40
2.799999999999998
100
AcDbArc
 50
146.286
 51
453.7139999999998
  0
ARC
  5
465
330
40A
100
AcDbEntity
  8
C-F
  6
Continuous
 62
     7
100
AcDbCircle
 10
-32.6614192
 20
42.572989626655
 30
0.0
 40
1.239999999999998
100
AcDbArc
 50
30.0
 51
210.0
  0
ARC
  5
466
330
40A
100
AcDbEntity
  8
C-F
  6
Continuous
 62
     7
100
AcDbCircle
 10
-18.5370632
 20
46.10888802665598
 30
0.0
 40
2.799999999999998
100
AcDbArc
 50
146.286
 51
453.7139999999998
  0
ARC
  5
467
330
40A
100
AcDbEntity
  8
C-F
  6
Continuous
 62
     7
100
AcDbCircle
 10
-20.5370632
 20
49.57298962665499
 30
0.0
 40
1.239999999999998
100
AcDbArc
 50
30.0
 51
210.0
  0
ARC
  5
468
330
40A
100
AcDbEntity
  8
C-F
  6
Continuous
 62
     7
100
AcDbCircle
 10
22.5370632
 20
-53.037091173344
 30
0.0
 40
2.799999999999998
100
AcDbArc
 50
146.286
 51
453.7139999999998
  0
ARC
  5
469
330
40A
100
AcDbEntity
  8
C-F
  6
Continuous
 62
     7
100
AcDbCircle
 10
20.5370632
 20
-49.572989573344
 30
0.0
 40
1.239999999999998
100
AcDbArc
 50
30.0
 51
210.0
  0
ARC
  5
46A
330
40A
100
AcDbEntity
  8
C-F
  6
Continuous
 62
     7
100
AcDbCircle
 10
34.6614188
 20
-46.03709117334498
 30
0.0
 40
2.799999999999998
100
AcDbArc
 50
146.286
 51
453.7139999999998
  0
ARC
  5
46B
330
40A
100
AcDbEntity
  8
C-F
  6
Continuous
 62
     7
100
AcDbCircle
 10
32.6614188
 20
-42.572989573345
 30
0.0
 40
1.239999999999998
100
AcDbArc
 50
30.0
 51
210.0
  0
ARC
  5
46C
330
40A
100
AcDbEntity
  8
C-F
  6
Continuous
 62
     7
100
AcDbCircle
 10
35.4
 20
66.653952426655
 30
0.0
 40
4.0
100
AcDbArc
 50
0.0
 51
90.0
  0
ARC
  5
46D
330
40A
100
AcDbEntity
  8
C-F
  6
Continuous
 62
     7
100
AcDbCircle
 10
32.636
 20
65.62500882665499
 30
0.0
 40
0.8759999999999998
100
AcDbArc
 50
90.0
 51
270.0
  0
ARC
  5
46E
330
40A
100
AcDbEntity
  8
C-F
  6
Continuous
 62
     7
100
AcDbCircle
 10
33.36400000000001
 20
65.62500882665499
 30
0.0
 40
0.8759999999999998
100
AcDbArc
 50
270.0
 51
450.0
  0
ARC
  5
46F
330
40A
100
AcDbEntity
  8
C-F
  6
Continuous
 62
     7
100
AcDbCircle
 10
-35.4
 20
-66.653952373345
 30
0.0
 40
4.0
100
AcDbArc
 50
180.0
 51
270.0
  0
ARC
  5
470
330
40A
100
AcDbEntity
  8
C-F
  6
Continuous
 62
     7
100
AcDbCircle
 10
-33.36400000000001
 20
-65.625008773345
 30
0.0
 40
0.8759999999999998
100
AcDbArc
 50
90.0
 51
270.0
  0
ARC
  5
471
330
40A
100
AcDbEntity
  8
C-F
  6
Continuous
 62
     7
100
AcDbCircle
 10
-32.636
 20
-65.625008773345
 30
0.0
 40
0.8759999999999998
100
AcDbArc
 50
270.0
 51
450.0
  0
LINE
  5
472
330
40A
100
AcDbEntity
  8
C-F
  6
DASHED2
 62
     3
100
AcDbLine
 10
40.0
 20
-58.519999973345
 30
0.0
 11
-38.72
 21
-58.519999973345
 31
0.0
  0
LINE
  5
473
330
40A
100
AcDbEntity
  8
C-F
  6
DASHED2
 62
     3
100
AcDbLine
 10
38.72
 20
58.520000026655
 30
0.0
 11
-40.0
 21
58.520000026655
 31
0.0
  0
LINE
  5
474
330
40A
100
AcDbEntity
  8
C-F
  6
DASHED2
 62
     3
100
AcDbLine
 10
38.72
 20
-58.519999973345
 30
0.0
 11
38.72
 21
58.520000026655
 31
0.0
  0
LINE
  5
475
330
40A
100
AcDbEntity
  8
C-F
  6
DASHED2
 62
     3
100
AcDbLine
 10
32.636
 20
-64.749008773344
 30
0.0
 11
33.36400000000001
 21
-64.749008773344
 31
0.0
  0
LINE
  5
476
330
40A
100
AcDbEntity
  8
C-F
  6
DASHED2
 62
     3
100
AcDbLine
 10
33.36400000000001
 20
-66.50100877334501
 30
0.0
 11
32.636
 21
-66.50100877334501
 31
0.0
  0
LINE
  5
477
330
40A
100
AcDbEntity
  8
C-F
  6
DASHED2
 62
     3
100
AcDbLine
 10
39.4
 20
-66.653952373345
 30
0.0
 11
39.4
 21
-58.519999973345
 31
0.0
  0
LINE
  5
478
330
40A
100
AcDbEntity
  8
C-F
  6
DASHED2
 62
     3
100
AcDbLine
 10
35.4
 20
-70.65395237334501
 30
0.0
 11
16.7510656
 21
-70.65395237334501
 31
0.0
  0
LINE
  5
479
330
40A
100
AcDbEntity
  8
C-F
  6
DASHED2
 62
     3
100
AcDbLine
 10
39.4
 20
-59.799999973345
 30
0.0
 11
10.4847268
 21
-59.799999973345
 31
0.0
  0
LINE
  5
47A
330
40A
100
AcDbEntity
  8
C-F
  6
DASHED2
 62
     3
100
AcDbLine
 10
40.0
 20
-58.519999973345
 30
0.0
 11
40.0
 21
-27.644721573345
 31
0.0
  0
LINE
  5
47B
330
40A
100
AcDbEntity
  8
C-F
  6
DASHED2
 62
     3
100
AcDbLine
 10
-38.72
 20
-58.519999973345
 30
0.0
 11
-38.72
 21
58.520000026655
 31
0.0
  0
LINE
  5
47C
330
40A
100
AcDbEntity
  8
C-F
  6
DASHED2
 62
     3
100
AcDbLine
 10
-10.4862336
 20
59.800000026655
 30
0.0
 11
-39.4
 21
59.800000026655
 31
0.0
  0
LINE
  5
47D
330
40A
100
AcDbEntity
  8
C-F
  6
DASHED2
 62
     3
100
AcDbLine
 10
-35.4
 20
70.65395242665498
 30
0.0
 11
-16.752766
 21
70.65395242665498
 31
0.0
  0
LINE
  5
47E
330
40A
100
AcDbEntity
  8
C-F
  6
DASHED2
 62
     3
100
AcDbLine
 10
-39.4
 20
66.653952426655
 30
0.0
 11
-39.4
 21
58.520000026655
 31
0.0
  0
LINE
  5
47F
330
40A
100
AcDbEntity
  8
C-F
  6
DASHED2
 62
     3
100
AcDbLine
 10
-33.36400000000001
 20
66.50100882665601
 30
0.0
 11
-32.636
 21
66.50100882665601
 31
0.0
  0
LINE
  5
480
330
40A
100
AcDbEntity
  8
C-F
  6
DASHED2
 62
     3
100
AcDbLine
 10
-32.636
 20
64.749008826655
 30
0.0
 11
-33.36400000000001
 21
64.749008826655
 31
0.0
  0
LINE
  5
481
330
40A
100
AcDbEntity
  8
C-F
  6
DASHED2
 62
     3
100
AcDbLine
 10
-40.0
 20
27.644810826656
 30
0.0
 11
-40.0
 21
58.520000026655
 31
0.0
  0
ARC
  5
482
330
40A
100
AcDbEntity
  8
C-F
  6
DASHED2
 62
     3
100
AcDbCircle
 10
32.636
 20
-65.625008773345
 30
0.0
 40
0.8759999999999998
100
AcDbArc
 50
90.0
 51
270.0
  0
ARC
  5
483
330
40A
100
AcDbEntity
  8
C-F
  6
DASHED2
 62
     3
100
AcDbCircle
 10
33.36400000000001
 20
-65.625008773345
 30
0.0
 40
0.8759999999999998
100
AcDbArc
 50
270.0
 51
450.0
  0
ARC
  5
484
330
40A
100
AcDbEntity
  8
C-F
  6
DASHED2
 62
     3
100
AcDbCircle
 10
35.4
 20
-66.653952373345
 30
0.0
 40
4.0
100
AcDbArc
 50
270.0
 51
360.0
  0
ARC
  5
485
330
40A
100
AcDbEntity
  8
C-F
  6
DASHED2
 62
     3
100
AcDbCircle
 10
-35.4
 20
66.653952426655
 30
0.0
 40
4.0
100
AcDbArc
 50
90.0
 51
180.0
  0
ARC
  5
486
330
40A
100
AcDbEntity
  8
C-F
  6
DASHED2
 62
     3
100
AcDbCircle
 10
-33.36400000000001
 20
65.62500882665499
 30
0.0
 40
0.8759999999999998
100
AcDbArc
 50
90.0
 51
270.0
  0
ARC
  5
487
330
40A
100
AcDbEntity
  8
C-F
  6
DASHED2
 62
     3
100
AcDbCircle
 10
-32.636
 20
65.62500882665499
 30
0.0
 40
0.8759999999999998
100
AcDbArc
 50
270.0
 51
450.0
  0
LINE
  5
488
330
40A
100
AcDbEntity
  8
C-F
  6
Continuous
 62
     7
100
AcDbLine
 10
76.90701119999999
 20
-100.489539973345
 30
0.0
 11
82.43761840000003
 21
-110.068833173345
 31
0.0
  0
LINE
  5
489
330
40A
100
AcDbEntity
  8
C-F
  6
Continuous
 62
     7
100
AcDbLine
 10
82.43761840000003
 20
-110.068833173345
 30
0.0
 11
85.9278976
 21
-113.559111973345
 31
0.0
  0
ARC
  5
48A
330
40A
100
AcDbEntity
  8
C-F
  6
Continuous
 62
     7
100
AcDbCircle
 10
83.0994704
 20
-116.387539173344
 30
0.0
 40
4.0
100
AcDbArc
 50
315.0
 51
404.9999999999998
  0
LINE
  5
48B
330
40A
100
AcDbEntity
  8
C-F
  6
Continuous
 62
     7
100
AcDbLine
 10
67.0362576
 20
-138.107606373345
 30
0.0
 11
85.9278976
 21
-119.215966373345
 31
0.0
  0
LINE
  5
48C
330
40A
100
AcDbEntity
  8
C-F
  6
Continuous
 62
     7
100
AcDbLine
 10
60.8128376
 20
-131.693613973345
 30
0.0
 11
82.43761840000003
 21
-110.068833173345
 31
0.0
  0
ARC
  5
48D
330
40A
100
AcDbEntity
  8
C-F
  6
Continuous
 62
     7
100
AcDbCircle
 10
64.33511
 20
-135.151899973345
 30
0.0
 40
4.0
100
AcDbArc
 50
280.712
 51
312.421
  0
ARC
  5
48E
330
40A
100
AcDbEntity
  8
C-F
  6
Continuous
 62
     7
100
AcDbCircle
 10
70.62515639999998
 20
-144.689048373345
 30
0.0
 40
2.0
100
AcDbArc
 50
210.0
 51
240.0
  0
ARC
  5
48F
330
40A
100
AcDbEntity
  8
C-F
  6
Continuous
 62
     7
100
AcDbCircle
 10
70.62515639999998
 20
-144.689048373345
 30
0.0
 40
9.64
100
AcDbArc
 50
210.0
 51
240.0
  0
LINE
  5
490
330
40A
100
AcDbEntity
  8
C-F
  6
CENTER2
 62
     3
100
AcDbLine
 10
-97.78313160000001
 20
154.562663226656
 30
0.0
 11
-117.7384828
 21
189.126345226655
 31
0.0
  0
LINE
  5
491
330
40A
100
AcDbEntity
  8
C-F
  6
CENTER2
 62
     3
100
AcDbLine
 10
-114.7069752
 20
171.411268026656
 30
0.0
 11
-122.285346
 21
167.035893626656
 31
0.0
  0
LINE
  5
492
330
40A
100
AcDbEntity
  8
C-F
  6
CENTER2
 62
     3
100
AcDbLine
 10
-97.46207159999999
 20
161.737708426655
 30
0.0
 11
-103.989534
 21
157.969076426655
 31
0.0
  0
LINE
  5
493
330
40A
100
AcDbEntity
  8
C-F
  6
CENTER2
 62
     3
100
AcDbLine
 10
-111.4620716
 20
185.9864196266548
 30
0.0
 11
-117.989534
 21
182.217787626655
 31
0.0
  0
LINE
  5
494
330
40A
100
AcDbEntity
  8
C-F
  6
CENTER2
 62
     3
100
AcDbLine
 10
-99.98204520000001
 20
179.912710026655
 30
0.0
 11
-118.7235044
 21
169.092323626655
 31
0.0
  0
LINE
  5
495
330
40A
100
AcDbEntity
  8
C-F
  6
CENTER2
 62
     3
100
AcDbLine
 10
-110.9723152
 20
164.606998826656
 30
0.0
 11
-107.88284
 21
159.255870826655
 31
0.0
  0
LINE
  5
496
330
40A
100
AcDbEntity
  8
C-F
  6
CENTER2
 62
     3
100
AcDbLine
 10
-107.0678856
 20
162.889052026655
 30
0.0
 11
-111.1137096
 21
160.553194426655
 31
0.0
  0
LINE
  5
497
330
40A
100
AcDbEntity
  8
C-F
  6
Continuous
 62
     7
100
AcDbLine
 10
-140.0920408
 20
216.283842826655
 30
0.0
 11
-117.2587656
 21
229.466640426655
 31
0.0
  0
LINE
  5
498
330
40A
100
AcDbEntity
  8
C-F
  6
Continuous
 62
     7
100
AcDbLine
 10
-90.2959084
 20
160.794412026655
 30
0.0
 11
-108.6959084
 21
192.664146826655
 31
0.0
  0
LINE
  5
499
330
40A
100
AcDbEntity
  8
C-F
  6
Continuous
 62
     7
100
AcDbLine
 10
-118.6235964
 20
171.459406426656
 30
0.0
 11
-119.8706728
 21
170.739406426655
 31
0.0
  0
LINE
  5
49A
330
40A
100
AcDbEntity
  8
C-F
  6
Continuous
 62
     7
100
AcDbLine
 10
-117.0392884
 20
167.755304826655
 30
0.0
 11
-118.2863652
 21
167.035304826655
 31
0.0
  0
LINE
  5
49B
330
40A
100
AcDbEntity
  8
C-F
  6
Continuous
 62
     7
100
AcDbLine
 10
-109.3030332
 20
161.875717226656
 30
0.0
 11
-112.1435964
 21
160.235717226655
 31
0.0
  0
LINE
  5
49C
330
40A
100
AcDbEntity
  8
C-F
  6
Continuous
 62
     7
100
AcDbLine
 10
-124.6556472
 20
177.907225226655
 30
0.0
 11
-123.9556472
 21
176.694789626656
 31
0.0
  0
LINE
  5
49D
330
40A
100
AcDbEntity
  8
C-F
  6
Continuous
 62
     7
100
AcDbLine
 10
-127.0805184
 20
176.507225226655
 30
0.0
 11
-124.6556472
 21
177.907225226655
 31
0.0
  0
LINE
  5
49E
330
40A
100
AcDbEntity
  8
C-F
  6
Continuous
 62
     7
100
AcDbLine
 10
-108.6959084
 20
192.664146826655
 30
0.0
 11
-125.3235964
 21
183.064146826655
 31
0.0
  0
LINE
  5
49F
330
40A
100
AcDbEntity
  8
C-F
  6
Continuous
 62
     7
100
AcDbLine
 10
-101.7459084
 20
180.626394026656
 30
0.0
 11
-118.3735964
 21
171.026394026655
 31
0.0
  0
LINE
  5
4A0
330
40A
100
AcDbEntity
  8
C-F
  6
Continuous
 62
     7
100
AcDbLine
 10
-100.2459084
 20
178.028317626655
 30
0.0
 11
-116.8735964
 21
168.428317626656
 31
0.0
  0
LINE
  5
4A1
330
40A
100
AcDbEntity
  8
C-F
  6
Continuous
 62
     7
100
AcDbLine
 10
-102.0659084
 20
181.180650026656
 30
0.0
 11
-118.6935964
 21
171.580650026656
 31
0.0
  0
LINE
  5
4A2
330
40A
100
AcDbEntity
  8
C-F
  6
Continuous
 62
     7
100
AcDbLine
 10
-99.9259084
 20
177.474061626656
 30
0.0
 11
-116.5535964
 21
167.874061626655
 31
0.0
  0
LINE
  5
4A3
330
40A
100
AcDbEntity
  8
C-F
  6
Continuous
 62
     7
100
AcDbLine
 10
-106.9235964
 20
151.194412026655
 30
0.0
 11
-90.2959084
 21
160.794412026655
 31
0.0
  0
LINE
  5
4A4
330
40A
100
AcDbEntity
  8
C-F
  6
Continuous
 62
     7
100
AcDbLine
 10
-109.0630332
 20
161.460025226656
 30
0.0
 11
-112.3192884
 21
159.580025226655
 31
0.0
  0
LINE
  5
4A5
330
40A
100
AcDbEntity
  8
C-F
  6
Continuous
 62
     7
100
AcDbLine
 10
-127.0805184
 20
176.507225226655
 30
0.0
 11
-126.3805184
 21
175.294789626655
 31
0.0
  0
LINE
  5
4A6
330
40A
100
AcDbEntity
  8
C-F
  6
Continuous
 62
     7
100
AcDbLine
 10
-123.4706728
 20
176.974789626655
 30
0.0
 11
-126.7269284
 21
175.094789626656
 31
0.0
  0
LINE
  5
4A7
330
40A
100
AcDbEntity
  8
C-F
  6
Continuous
 62
     7
100
AcDbLine
 10
-123.6463652
 20
176.319097226655
 30
0.0
 11
-126.4869284
 21
174.679097226656
 31
0.0
  0
LINE
  5
4A8
330
40A
100
AcDbEntity
  8
C-F
  6
Continuous
 62
     7
100
AcDbLine
 10
-123.8863652
 20
176.734789626655
 30
0.0
 11
-118.2863652
 21
167.035304826655
 31
0.0
  0
LINE
  5
4A9
330
40A
100
AcDbEntity
  8
C-F
  6
Continuous
 62
     7
100
AcDbLine
 10
-123.4706728
 20
176.974789626655
 30
0.0
 11
-117.8706728
 21
167.275304826655
 31
0.0
  0
LINE
  5
4AA
330
40A
100
AcDbEntity
  8
C-F
  6
Continuous
 62
     7
100
AcDbLine
 10
-119.4549808
 20
170.979406426655
 30
0.0
 11
-117.4549808
 21
167.515304826655
 31
0.0
  0
LINE
  5
4AB
330
40A
100
AcDbEntity
  8
C-F
  6
Continuous
 62
     7
100
AcDbLine
 10
-119.0392884
 20
171.219406426656
 30
0.0
 11
-112.3192884
 21
159.580025226655
 31
0.0
  0
LINE
  5
4AC
330
40A
100
AcDbEntity
  8
C-F
  6
Continuous
 62
     7
100
AcDbLine
 10
-125.3235964
 20
183.064146826655
 30
0.0
 11
-112.1435964
 21
160.235717226655
 31
0.0
  0
LINE
  5
4AD
330
40A
100
AcDbEntity
  8
C-F
  6
Continuous
 62
     7
100
AcDbLine
 10
-101.0030884
 20
183.249192426655
 30
0.0
 11
-101.0030884
 21
223.013809626655
 31
0.0
  0
LINE
  5
4AE
330
40A
100
AcDbEntity
  8
C-F
  6
Continuous
 62
     7
100
AcDbLine
 10
-98.20308840000002
 20
183.249192426655
 30
0.0
 11
-98.20308840000002
 21
223.013809626655
 31
0.0
  0
LINE
  5
4AF
330
40A
100
AcDbEntity
  8
C-F
  6
Continuous
 62
     7
100
AcDbLine
 10
-75.02232600000002
 20
241.939791226656
 30
0.0
 11
-97.6030884
 21
228.902782426655
 31
0.0
  0
LINE
  5
4B0
330
40A
100
AcDbEntity
  8
C-F
  6
Continuous
 62
     7
100
AcDbLine
 10
-73.622326
 20
239.514920426655
 30
0.0
 11
-96.20308839999999
 21
226.477911226656
 31
0.0
  0
LINE
  5
4B1
330
40A
100
AcDbEntity
  8
C-F
  6
Continuous
 62
     7
100
AcDbLine
 10
-75.02232600000002
 20
241.939791226656
 30
0.0
 11
-73.622326
 21
239.514920426655
 31
0.0
  0
LINE
  5
4B2
330
40A
100
AcDbEntity
  8
C-F
  6
Continuous
 62
     7
100
AcDbLine
 10
-111.9035964
 20
159.820025226655
 30
0.0
 11
-106.9235964
 21
151.194412026655
 31
0.0
  0
LINE
  5
4B3
330
40A
100
AcDbEntity
  8
C-F
  6
Continuous
 62
     7
100
AcDbLine
 10
-123.7156472
 20
176.279097226655
 30
0.0
 11
-121.0556472
 21
171.671842026655
 31
0.0
  0
LINE
  5
4B4
330
40A
100
AcDbEntity
  8
C-F
  6
Continuous
 62
     7
100
AcDbLine
 10
-126.1405184
 20
174.879097226655
 30
0.0
 11
-123.4805184
 21
170.271842026656
 31
0.0
  0
LINE
  5
4B5
330
40A
100
AcDbEntity
  8
C-F
  6
Continuous
 62
     7
100
AcDbLine
 10
-110.182316
 20
217.209381226655
 30
0.0
 11
-133.0153792
 21
204.026706026656
 31
0.0
  0
ARC
  5
4B6
330
40A
100
AcDbEntity
  8
C-F
  6
Continuous
 62
     7
100
AcDbCircle
 10
-113.1755496
 20
230.028711626655
 30
0.0
 40
4.1702468
100
AcDbArc
 50
53.746
 51
186.255
  0
ARC
  5
4B7
330
40A
100
AcDbEntity
  8
C-F
  6
Continuous
 62
     7
100
AcDbCircle
 10
-142.6204136
 20
213.028710826655
 30
0.0
 40
4.170247599999998
100
AcDbArc
 50
53.746
 51
186.255
  0
CIRCLE
  5
4B8
330
40A
100
AcDbEntity
  8
C-F
  6
Continuous
 62
     7
100
AcDbCircle
 10
-100.8097524
 20
159.804924026655
 30
0.0
 40
1.3
  0
ARC
  5
4B9
330
40A
100
AcDbEntity
  8
C-F
  6
Continuous
 62
     7
100
AcDbCircle
 10
-126.6069284
 20
174.886943226655
 30
0.0
 40
0.24
100
AcDbArc
 50
120.0
 51
300.0
  0
ARC
  5
4BA
330
40A
100
AcDbEntity
  8
C-F
  6
Continuous
 62
     7
100
AcDbCircle
 10
-105.0030884
 20
183.249192426655
 30
0.0
 40
6.799999999999998
100
AcDbArc
 50
300.0
 51
360.0
  0
ARC
  5
4BB
330
40A
100
AcDbEntity
  8
C-F
  6
Continuous
 62
     7
100
AcDbCircle
 10
-105.0030884
 20
183.249192426655
 30
0.0
 40
4.0
100
AcDbArc
 50
300.0
 51
360.0
  0
ARC
  5
4BC
330
40A
100
AcDbEntity
  8
C-F
  6
Continuous
 62
     7
100
AcDbCircle
 10
-119.3235964
 20
172.671842026655
 30
0.0
 40
4.799999999999998
100
AcDbArc
 50
210.0
 51
276.422
  0
CIRCLE
  5
4BD
330
40A
100
AcDbEntity
  8
C-F
  6
Continuous
 62
     7
100
AcDbCircle
 10
-114.8097524
 20
184.053635226655
 30
0.0
 40
1.3
  0
ARC
  5
4BE
330
40A
100
AcDbEntity
  8
C-F
  6
Continuous
 62
     7
100
AcDbCircle
 10
-94.20308840000002
 20
223.013809626655
 30
0.0
 40
6.799999999999998
100
AcDbArc
 50
120.0
 51
180.0
  0
ARC
  5
4BF
330
40A
100
AcDbEntity
  8
C-F
  6
Continuous
 62
     7
100
AcDbCircle
 10
-94.20308840000002
 20
223.013809626655
 30
0.0
 40
4.0
100
AcDbArc
 50
120.0
 51
180.0
  0
CIRCLE
  5
4C0
330
40A
100
AcDbEntity
  8
C-F
  6
Continuous
 62
     7
100
AcDbCircle
 10
-109.2523152
 20
161.627871226655
 30
0.0
 40
0.6
  0
ARC
  5
4C1
330
40A
100
AcDbEntity
  8
C-F
  6
Continuous
 62
     7
100
AcDbCircle
 10
-109.1830332
 20
161.667871226655
 30
0.0
 40
0.24
100
AcDbArc
 50
300.0
 51
479.9999999999998
  0
ARC
  5
4C2
330
40A
100
AcDbEntity
  8
C-F
  6
Continuous
 62
     7
100
AcDbCircle
 10
-123.9742112
 20
176.406943226656
 30
0.0
 40
0.24
100
AcDbArc
 50
300.0
 51
479.9999999999998
  0
LINE
  5
4C3
330
40A
100
AcDbEntity
  8
C-F
  6
DASHED2
 62
     3
100
AcDbLine
 10
-135.3235964
 20
200.384655226655
 30
0.0
 11
-132.0153792
 21
202.294655226655
 31
0.0
  0
LINE
  5
4C4
330
40A
100
AcDbEntity
  8
C-F
  6
DASHED2
 62
     3
100
AcDbLine
 10
-109.1822884
 20
215.477346426655
 30
0.0
 11
-105.8787328
 21
217.384655226655
 31
0.0
  0
LINE
  5
4C5
330
40A
100
AcDbEntity
  8
C-F
  6
DASHED2
 62
     3
100
AcDbLine
 10
-118.3235964
 20
170.939791226655
 30
0.0
 11
-103.0030884
 21
179.785090826655
 31
0.0
  0
LINE
  5
4C6
330
40A
100
AcDbEntity
  8
C-F
  6
DASHED2
 62
     3
100
AcDbLine
 10
-116.9235964
 20
168.514920426655
 30
0.0
 11
-101.6030884
 21
177.360219626655
 31
0.0
  0
ARC
  5
4C7
330
40A
100
AcDbEntity
  8
C-F
  6
DASHED2
 62
     3
100
AcDbCircle
 10
-119.3235964
 20
172.671842026655
 30
0.0
 40
2.0
100
AcDbArc
 50
210.0
 51
300.0
  0
ARC
  5
4C8
330
40A
100
AcDbEntity
  8
C-F
  6
DASHED2
 62
     3
100
AcDbCircle
 10
-119.3235964
 20
172.671842026655
 30
0.0
 40
4.799999999999998
100
AcDbArc
 50
276.422
 51
300.0
  0
ARC
  5
4C9
330
40A
100
AcDbEntity
  8
C-F
  6
DASHED2
 62
     3
100
AcDbCircle
 10
-123.9742112
 20
176.406943226656
 30
0.0
 40
0.24
100
AcDbArc
 50
120.035
 51
299.9649999999999
  0
LINE
  5
4CA
330
40A
100
AcDbEntity
  8
C-F
  6
Continuous
 62
     7
100
AcDbLine
 10
-110.7093904
 20
233.391600026656
 30
0.0
 11
58.8419692
 21
-60.27996957334501
 31
0.0
  0
LINE
  5
4CB
330
40A
100
AcDbEntity
  8
C-F
  6
Continuous
 62
     7
100
AcDbLine
 10
-117.3209728
 20
229.574367626655
 30
0.0
 11
52.2255352
 21
-64.09996957334399
 31
0.0
  0
LINE
  5
4CC
330
40A
100
AcDbEntity
  8
C-F
  6
DASHED2
 62
     3
100
AcDbLine
 10
-105.8787328
 20
217.384655226655
 30
0.0
 11
67.46126719999999
 21
-82.84903197334399
 31
0.0
  0
LINE
  5
4CD
330
40A
100
AcDbEntity
  8
C-F
  6
DASHED2
 62
     3
100
AcDbLine
 10
-106.4329888
 20
217.064655226656
 30
0.0
 11
66.90701119999999
 21
-83.169031973345
 31
0.0
  0
LINE
  5
4CE
330
40A
100
AcDbEntity
  8
C-F
  6
DASHED2
 62
     3
100
AcDbLine
 10
-134.76934
 20
200.704655226655
 30
0.0
 11
58.57065999999999
 21
-134.170047973345
 31
0.0
  0
LINE
  5
4CF
330
40A
100
AcDbEntity
  8
C-F
  6
DASHED2
 62
     3
100
AcDbLine
 10
-135.3235964
 20
200.384655226655
 30
0.0
 11
58.0164036
 21
-134.490047973345
 31
0.0
  0
LINE
  5
4D0
330
40A
100
AcDbEntity
  8
C-F
  6
CENTER2
 62
     3
100
AcDbLine
 10
80.78720404606
 20
-139.932864794689
 30
0.0
 11
260.1779012
 21
-243.504131573345
 31
0.0
  0
LINE
  5
4D1
330
40A
100
AcDbEntity
  8
C-F
  6
CENTER2
 62
     3
100
AcDbLine
 10
-132.7570572
 20
229.950715226655
 30
0.0
 11
80.78720404606
 21
-139.932864794689
 31
0.0
  0
LINE
  5
4D2
330
40A
100
AcDbEntity
  8
C-F
  6
CENTER2
 62
     3
100
AcDbLine
 10
0.0
 20
85.653952426655
 30
0.0
 11
0.0
 21
-85.65395237334501
 31
0.0
  0
ENDBLK
  5
4D3
330
40A
100
AcDbEntity
  8
0
100
AcDbBlockEnd
  0
BLOCK
  5
4D4
330
40B
100
AcDbEntity
  8
0
100
AcDbBlockBegin
  2
012_3
 70
     0
 10
0.0
 20
0.0
 30
0.0
  3
012_3
  1

  0
LINE
  5
4D5
330
40B
100
AcDbEntity
  8
2-43THIN
  6
PHANTOM2
 62
     2
100
AcDbLine
 10
-18.733840832427
 20
-35.997230823683
 30
0.0
 11
-31.724357288825
 21
-43.497372217867
 31
0.0
  0
LINE
  5
4D6
330
40B
100
AcDbEntity
  8
2-43THIN
  6
PHANTOM2
 62
     2
100
AcDbLine
 10
-19.224821533063
 20
-65.146716525903
 30
0.0
 11
6.756736305641998
 21
-50.146433737534
 31
0.0
  0
LINE
  5
4D7
330
40B
100
AcDbEntity
  8
2-43THIN
  6
PHANTOM2
 62
     2
100
AcDbLine
 10
6.756736305641998
 20
-50.146433737534
 30
0.0
 11
-45.390803341288
 21
40.175117846835
 31
0.0
  0
LINE
  5
4D8
330
40B
100
AcDbEntity
  8
2-43THIN
  6
PHANTOM2
 62
     2
100
AcDbLine
 10
-63.381589035778
 20
41.33485415610699
 30
0.0
 11
-46.060958752349
 21
51.334342780474
 31
0.0
  0
LINE
  5
4D9
330
40B
100
AcDbEntity
  8
2-43THIN
  6
PHANTOM2
 62
     2
100
AcDbLine
 10
-12.484247929849
 20
-46.82190297770099
 30
0.0
 11
-63.381589035778
 21
41.33485415610699
 31
0.0
  0
LINE
  5
4DA
330
40B
100
AcDbEntity
  8
2-43THIN
  6
PHANTOM2
 62
     2
100
AcDbLine
 10
-56.060622352018
 20
68.6547980886
 30
0.0
 11
21.881601509853
 21
113.654946552494
 31
0.0
  0
LINE
  5
4DB
330
40B
100
AcDbEntity
  8
2-43THIN
  6
PHANTOM2
 62
     2
100
AcDbLine
 10
-26.062156478919
 20
16.695531867859
 30
0.0
 11
-56.060622352018
 21
68.6547980886
 31
0.0
  0
LINE
  5
4DC
330
40B
100
AcDbEntity
  8
2-43THIN
  6
PHANTOM2
 62
     2
100
AcDbLine
 10
-26.062156478919
 20
16.695531867859
 30
0.0
 11
51.880067382953
 21
61.695680331752
 31
0.0
  0
LINE
  5
4DD
330
40B
100
AcDbEntity
  8
2-43THIN
  6
PHANTOM2
 62
     2
100
AcDbLine
 10
51.880067382953
 20
61.695680331752
 30
0.0
 11
21.881601509853
 21
113.654946552494
 31
0.0
  0
LINE
  5
4DE
330
40B
100
AcDbEntity
  8
2-43THIN
  6
PHANTOM2
 62
     2
100
AcDbLine
 10
31.881440084825
 20
96.33449124436701
 30
0.0
 11
36.211378936554
 21
98.83453837576201
 31
0.0
  0
LINE
  5
4DF
330
40B
100
AcDbEntity
  8
2-43THIN
  6
PHANTOM2
 62
     2
100
AcDbLine
 10
46.211567462133
 20
81.51408306763597
 30
0.0
 11
36.211378936554
 21
98.83453837576201
 31
0.0
  0
LINE
  5
4E0
330
40B
100
AcDbEntity
  8
2-43THIN
  6
PHANTOM2
 62
     2
100
AcDbLine
 10
41.881278659798
 20
79.014735837453
 30
0.0
 11
46.211567462133
 21
81.51408306763597
 31
0.0
  0
LINE
  5
4E1
330
40B
100
AcDbEntity
  8
2-43THIN
  6
PHANTOM2
 62
     2
100
AcDbLine
 10
130.699092488904
 20
-332.322106114012
 30
0.0
 11
115.676762812338
 21
-322.873089793353
 31
0.0
  0
LINE
  5
4E2
330
40B
100
AcDbEntity
  8
2-43THIN
  6
PHANTOM2
 62
     2
100
AcDbLine
 10
183.152838916344
 20
-423.1748827187419
 30
0.0
 11
130.699092488904
 21
-332.322106114012
 31
0.0
  0
LINE
  5
4E3
330
40B
100
AcDbEntity
  8
2-43THIN
  6
PHANTOM2
 62
     2
100
AcDbLine
 10
178.822900064616
 20
-425.6745798995298
 30
0.0
 11
126.987866309111
 21
-335.894401903105
 31
0.0
  0
LINE
  5
4E4
330
40B
100
AcDbEntity
  8
2-43THIN
  6
PHANTOM2
 62
     2
100
AcDbLine
 10
126.987866309111
 20
-335.894401903105
 30
0.0
 11
111.200194656571
 21
-325.964203498786
 31
0.0
  0
LINE
  5
4E5
330
40B
100
AcDbEntity
  8
2-43THIN
  6
PHANTOM2
 62
     2
100
AcDbLine
 10
124.123870547166
 20
-363.434814717566
 30
0.0
 11
104.922780680793
 21
-330.177608798617
 31
0.0
  0
LINE
  5
4E6
330
40B
100
AcDbEntity
  8
2-43THIN
  6
PHANTOM2
 62
     2
100
AcDbLine
 10
164.749286481725
 20
-433.80008302717
 30
0.0
 11
126.62391767856
 21
-367.765453470507
 31
0.0
  0
LINE
  5
4E7
330
40B
100
AcDbEntity
  8
2-43THIN
  6
PHANTOM2
 62
     2
100
AcDbLine
 10
205.374352465677
 20
-504.1646514355609
 30
0.0
 11
167.249683563726
 21
-438.130371829504
 31
0.0
  0
LINE
  5
4E8
330
40B
100
AcDbEntity
  8
2-43THIN
  6
PHANTOM2
 62
     2
100
AcDbLine
 10
245.999768400237
 20
-574.529569794559
 30
0.0
 11
207.874749547678
 21
-508.4949402378959
 31
0.0
  0
LINE
  5
4E9
330
40B
100
AcDbEntity
  8
2-43THIN
  6
PHANTOM2
 62
     2
100
AcDbLine
 10
286.624834384189
 20
-644.8948381041629
 30
0.0
 11
248.499815531631
 21
-578.860208547501
 31
0.0
  0
LINE
  5
4EA
330
40B
100
AcDbEntity
  8
2-43THIN
  6
PHANTOM2
 62
     2
100
AcDbLine
 10
376.351119987245
 20
-800.3051027563719
 30
0.0
 11
289.124881515584
 21
-649.224776955892
 31
0.0
  0
LINE
  5
4EB
330
40B
100
AcDbEntity
  8
2-43THIN
  6
PHANTOM2
 62
     2
100
AcDbLine
 10
379.880371851763
 20
-798.417119235392
 30
0.0
 11
292.589392517937
 21
-647.2248092408968
 31
0.0
  0
LINE
  5
4EC
330
40B
100
AcDbEntity
  8
2-43THIN
  6
PHANTOM2
 62
     2
100
AcDbLine
 10
356.7276397390701
 20
-748.3143409810638
 30
0.0
 11
296.920031270878
 21
-644.724762109503
 31
0.0
  0
LINE
  5
4ED
330
40B
100
AcDbEntity
  8
2-43THIN
  6
PHANTOM2
 62
     2
100
AcDbLine
 10
356.7276397390701
 20
-748.3143409810638
 30
0.0
 11
407.435482591688
 21
-774.145245083757
 31
0.0
  0
LINE
  5
4EE
330
40B
100
AcDbEntity
  8
2-43THIN
  6
PHANTOM2
 62
     2
100
AcDbLine
 10
440.8018730998018
 20
-831.936088207852
 30
0.0
 11
407.435482591688
 21
-774.145245083757
 31
0.0
  0
LINE
  5
4EF
330
40B
100
AcDbEntity
  8
2-43THIN
  6
PHANTOM2
 62
     2
100
AcDbLine
 10
449.4624507044719
 20
-826.9363438956689
 30
0.0
 11
414.615069230503
 21
-766.579662926195
 31
0.0
  0
LINE
  5
4F0
330
40B
100
AcDbEntity
  8
2-43THIN
  6
PHANTOM2
 62
     2
100
AcDbLine
 10
363.906176526066
 20
-740.748758823501
 30
0.0
 11
414.615069230503
 21
-766.579662926195
 31
0.0
  0
LINE
  5
4F1
330
40B
100
AcDbEntity
  8
2-43THIN
  6
PHANTOM2
 62
     2
100
AcDbLine
 10
363.906176526066
 20
-740.748758823501
 30
0.0
 11
305.579908974335
 21
-639.7250177973188
 31
0.0
  0
LINE
  5
4F2
330
40B
100
AcDbEntity
  8
2-43THIN
  6
PHANTOM2
 62
     2
100
AcDbLine
 10
305.028736769415
 20
-634.269287845129
 30
0.0
 11
266.903018015644
 21
-568.235008239072
 31
0.0
  0
LINE
  5
4F3
330
40B
100
AcDbEntity
  8
2-43THIN
  6
PHANTOM2
 62
     2
100
AcDbLine
 10
300.698098016474
 20
-636.7696849271299
 30
0.0
 11
262.573079163916
 21
-570.735055370468
 31
0.0
  0
LINE
  5
4F4
330
40B
100
AcDbEntity
  8
2-43THIN
  6
PHANTOM2
 62
     2
100
AcDbLine
 10
338.921452989401
 20
-620.474934846064
 30
0.0
 11
187.367644018601
 21
-707.9748346918498
 31
0.0
  0
LINE
  5
4F5
330
40B
100
AcDbEntity
  8
2-43THIN
  6
PHANTOM2
 62
     2
100
AcDbLine
 10
336.421405858007
 20
-616.144995994336
 30
0.0
 11
184.867596887206
 21
-703.6441959389089
 31
0.0
  0
LINE
  5
4F6
330
40B
100
AcDbEntity
  8
2-43THIN
  6
PHANTOM2
 62
     2
100
AcDbLine
 10
186.66529315176
 20
-341.760623916483
 30
0.0
 11
339.16641841381
 21
-605.8998420443478
 31
0.0
  0
LINE
  5
4F7
330
40B
100
AcDbEntity
  8
2-43THIN
  6
PHANTOM2
 62
     2
100
AcDbLine
 10
190.995931904701
 20
-339.260576785088
 30
0.0
 11
343.496357265539
 21
-603.4001448635598
 31
0.0
  0
LINE
  5
4F8
330
40B
100
AcDbEntity
  8
2-43THIN
  6
PHANTOM2
 62
     2
100
AcDbLine
 10
97.12168176519199
 20
-566.664429918006
 30
0.0
 11
261.665657241784
 21
-471.6647386286418
 31
0.0
  0
LINE
  5
4F9
330
40B
100
AcDbEntity
  8
2-43THIN
  6
PHANTOM2
 62
     2
100
AcDbLine
 10
99.62172889658702
 20
-570.9947187203408
 30
0.0
 11
264.165704373179
 21
-475.9950274309758
 31
0.0
  0
LINE
  5
4FA
330
40B
100
AcDbEntity
  8
2-43THIN
  6
PHANTOM2
 62
     2
100
AcDbLine
 10
223.777904900297
 20
-493.5394511271338
 30
0.0
 11
185.653585948951
 21
-427.505171521077
 31
0.0
  0
LINE
  5
4FB
330
40B
100
AcDbEntity
  8
2-43THIN
  6
PHANTOM2
 62
     2
100
AcDbLine
 10
219.448315999175
 20
-496.0394982585278
 30
0.0
 11
181.323297146617
 21
-430.005218652471
 31
0.0
  0
LINE
  5
4FC
330
40B
100
AcDbEntity
  8
2-43THIN
  6
PHANTOM2
 62
     2
100
AcDbLine
 10
260.072682081915
 20
-566.4044166175268
 30
0.0
 11
221.947663229357
 21
-500.369787060863
 31
0.0
  0
LINE
  5
4FD
330
40B
100
AcDbEntity
  8
2-43THIN
  6
PHANTOM2
 62
     2
100
AcDbLine
 10
264.402970884249
 20
-563.9040195355248
 30
0.0
 11
226.277952031692
 21
-497.869739929468
 31
0.0
  0
LINE
  5
4FE
330
40B
100
AcDbEntity
  8
2-43THIN
  6
PHANTOM2
 62
     2
100
AcDbLine
 10
181.559163855262
 20
-517.9145607076268
 30
0.0
 11
143.43449495331
 21
-451.8802811015699
 31
0.0
  0
LINE
  5
4FF
330
40B
100
AcDbEntity
  8
2-43THIN
  6
PHANTOM2
 62
     2
100
AcDbLine
 10
140.934097871309
 20
-447.549642348629
 30
0.0
 11
102.809079018751
 21
-381.515012791965
 31
0.0
  0
LINE
  5
500
330
40B
100
AcDbEntity
  8
2-43THIN
  6
PHANTOM2
 62
     2
100
AcDbLine
 10
136.603809068974
 20
-450.0500394306299
 30
0.0
 11
98.47879021641601
 21
-384.01505992336
 31
0.0
  0
LINE
  5
501
330
40B
100
AcDbEntity
  8
2-43THIN
  6
PHANTOM2
 62
     2
100
AcDbLine
 10
177.228875052927
 20
-520.4146078390208
 30
0.0
 11
139.103856200369
 21
-454.3806781835709
 31
0.0
  0
LINE
  5
502
330
40B
100
AcDbEntity
  8
2-43THIN
  6
PHANTOM2
 62
     2
100
AcDbLine
 10
217.85394103688
 20
-590.77952619802
 30
0.0
 11
179.728922184322
 21
-524.7448966413559
 31
0.0
  0
LINE
  5
503
330
40B
100
AcDbEntity
  8
2-43THIN
  6
PHANTOM2
 62
     2
100
AcDbLine
 10
222.184229839215
 20
-588.279479066624
 30
0.0
 11
184.059210986657
 21
-522.244849509961
 31
0.0
  0
LINE
  5
504
330
40B
100
AcDbEntity
  8
2-43THIN
  6
PHANTOM2
 62
     2
100
AcDbLine
 10
153.412636590692
 20
-534.1645171110858
 30
0.0
 11
115.287967688741
 21
-468.1309374062419
 31
0.0
  0
LINE
  5
505
330
40B
100
AcDbEntity
  8
2-43THIN
  6
PHANTOM2
 62
     2
100
AcDbLine
 10
112.78757060674
 20
-463.800298653301
 30
0.0
 11
74.662201803575
 21
-397.764969195425
 31
0.0
  0
LINE
  5
506
330
40B
100
AcDbEntity
  8
2-43THIN
  6
PHANTOM2
 62
     2
100
AcDbLine
 10
72.162504622787
 20
-393.435030343697
 30
0.0
 11
52.961064805808
 21
-360.177474474142
 31
0.0
  0
LINE
  5
507
330
40B
100
AcDbEntity
  8
2-43THIN
  6
PHANTOM2
 62
     2
100
AcDbLine
 10
46.880673021375
 20
-382.144923883302
 30
0.0
 11
46.174472697866
 21
-363.506904542463
 31
0.0
  0
LINE
  5
508
330
40B
100
AcDbEntity
  8
2-43THIN
  6
PHANTOM2
 62
     2
100
AcDbLine
 10
98.71535682627399
 20
-471.9247519291218
 30
0.0
 11
46.880673021375
 21
-382.144923883302
 31
0.0
  0
LINE
  5
509
330
40B
100
AcDbEntity
  8
2-43THIN
  6
PHANTOM2
 62
     2
100
AcDbLine
 10
139.340422810227
 20
-542.28967028812
 30
0.0
 11
101.215403957669
 21
-476.2553906820629
 31
0.0
  0
LINE
  5
50A
330
40B
100
AcDbEntity
  8
2-43THIN
  6
PHANTOM2
 62
     2
100
AcDbLine
 10
179.96548879418
 20
-612.654238696511
 30
0.0
 11
141.840469941621
 21
-546.6199590904539
 31
0.0
  0
LINE
  5
50B
330
40B
100
AcDbEntity
  8
2-43THIN
  6
PHANTOM2
 62
     2
100
AcDbLine
 10
175.635199991845
 20
-615.154285827906
 30
0.0
 11
137.510181139287
 21
-549.1200062218489
 31
0.0
  0
LINE
  5
50C
330
40B
100
AcDbEntity
  8
2-43THIN
  6
PHANTOM2
 62
     2
100
AcDbLine
 10
135.009784057286
 20
-544.789717419514
 30
0.0
 11
96.88511515533399
 21
-478.7554378134569
 31
0.0
  0
LINE
  5
50D
330
40B
100
AcDbEntity
  8
2-43THIN
  6
PHANTOM2
 62
     2
100
AcDbLine
 10
94.385068023939
 20
-474.425149011123
 30
0.0
 11
41.930971645893
 21
-383.572372406393
 31
0.0
  0
LINE
  5
50E
330
40B
100
AcDbEntity
  8
2-43THIN
  6
PHANTOM2
 62
     2
100
AcDbLine
 10
41.930971645893
 20
-383.572372406393
 30
0.0
 11
41.25906648179999
 21
-365.837925531016
 31
0.0
  0
LINE
  5
50F
330
40B
100
AcDbEntity
  8
2-43THIN
  6
PHANTOM2
 62
     2
100
AcDbLine
 10
173.920442020983
 20
-334.684972607738
 30
0.0
 11
22.366633050182
 21
-422.1845225029168
 31
0.0
  0
LINE
  5
510
330
40B
100
AcDbEntity
  8
2-43THIN
  6
PHANTOM2
 62
     2
100
AcDbLine
 10
176.420489152378
 20
-339.015261410072
 30
0.0
 11
24.866680181577
 21
-426.5148113052529
 31
0.0
  0
LINE
  5
511
330
40B
100
AcDbEntity
  8
2-43THIN
  6
PHANTOM2
 62
     2
100
AcDbLine
 10
22.120967724561
 20
-436.760315205847
 30
0.0
 11
174.622442937218
 21
-700.899883284319
 31
0.0
  0
LINE
  5
512
330
40B
100
AcDbEntity
  8
2-43THIN
  6
PHANTOM2
 62
     2
100
AcDbLine
 10
17.790678922226
 20
-439.2603623372409
 30
0.0
 11
170.291804184276
 21
-703.40028036632
 31
0.0
  0
LINE
  5
513
330
40B
100
AcDbEntity
  8
2-43THIN
  6
PHANTOM2
 62
     2
100
AcDbLine
 10
56.496615781239
 20
-496.299861509615
 30
0.0
 11
221.041291159044
 21
-401.3001702202498
 31
0.0
  0
LINE
  5
514
330
40B
100
AcDbEntity
  8
2-43THIN
  6
PHANTOM2
 62
     2
100
AcDbLine
 10
58.996662912634
 20
-500.6305002625558
 30
0.0
 11
223.540638389227
 21
-405.6308089731919
 31
0.0
  0
LINE
  5
515
330
40B
100
AcDbEntity
  8
2-43THIN
  6
PHANTOM2
 62
     2
100
AcDbLine
 10
194.037702574645
 20
-604.529785420691
 30
0.0
 11
155.912683722087
 21
-538.495155864027
 31
0.0
  0
LINE
  5
516
330
40B
100
AcDbEntity
  8
2-43THIN
  6
PHANTOM2
 62
     2
100
AcDbLine
 10
272.788487312368
 20
-740.929683286958
 30
0.0
 11
196.53774970604
 21
-608.860074223025
 31
0.0
  0
LINE
  5
517
330
40B
100
AcDbEntity
  8
2-43THIN
  6
PHANTOM2
 62
     2
100
AcDbLine
 10
324.38940411226
 20
-830.304968431896
 30
0.0
 11
275.288184493157
 21
-745.259622138686
 31
0.0
  0
LINE
  5
518
330
40B
100
AcDbEntity
  8
2-43THIN
  6
PHANTOM2
 62
     2
100
AcDbLine
 10
320.989633972072
 20
-832.417620242119
 30
0.0
 11
271.8240234414111
 21
-747.259939804287
 31
0.0
  0
LINE
  5
519
330
40B
100
AcDbEntity
  8
2-43THIN
  6
PHANTOM2
 62
     2
100
AcDbLine
 10
279.035105634792
 20
-789.7495426185969
 30
0.0
 11
220.708838083061
 21
-688.7254516418089
 31
0.0
  0
LINE
  5
51A
330
40B
100
AcDbEntity
  8
2-43THIN
  6
PHANTOM2
 62
     2
100
AcDbLine
 10
220.590554778132
 20
-683.0195070061148
 30
0.0
 11
182.465885876181
 21
-616.984877449451
 31
0.0
  0
LINE
  5
51B
330
40B
100
AcDbEntity
  8
2-43THIN
  6
PHANTOM2
 62
     2
100
AcDbLine
 10
216.260265975798
 20
-685.51955413751
 30
0.0
 11
178.1352471232399
 21
-619.485274531453
 31
0.0
  0
LINE
  5
51C
330
40B
100
AcDbEntity
  8
2-43THIN
  6
PHANTOM2
 62
     2
100
AcDbLine
 10
289.177024155923
 20
-787.3145862999741
 30
0.0
 11
229.369765638337
 21
-683.725007428412
 31
0.0
  0
LINE
  5
51D
330
40B
100
AcDbEntity
  8
2-43THIN
  6
PHANTOM2
 62
     2
100
AcDbLine
 10
289.177024155923
 20
-787.3145862999741
 30
0.0
 11
286.191595533592
 21
-844.145514910992
 31
0.0
  0
LINE
  5
51E
330
40B
100
AcDbEntity
  8
2-43THIN
  6
PHANTOM2
 62
     2
100
AcDbLine
 10
319.557286140493
 20
-901.9367079856939
 30
0.0
 11
286.191595533592
 21
-844.145514910992
 31
0.0
  0
LINE
  5
51F
330
40B
100
AcDbEntity
  8
2-43THIN
  6
PHANTOM2
 62
     2
100
AcDbLine
 10
310.897758387643
 20
-906.9364522978771
 30
0.0
 11
276.050726864281
 21
-846.5801212790099
 31
0.0
  0
LINE
  5
520
330
40B
100
AcDbEntity
  8
2-43THIN
  6
PHANTOM2
 62
     2
100
AcDbLine
 10
279.035105634792
 20
-789.7495426185969
 30
0.0
 11
276.050726864281
 21
-846.5801212790099
 31
0.0
  0
LINE
  5
521
330
40B
100
AcDbEntity
  8
2-43THIN
  6
PHANTOM2
 62
     2
100
AcDbLine
 10
346.638563759491
 20
-868.8422290986739
 30
0.0
 11
330.562182856755
 21
-840.9966593555211
 31
0.0
  0
LINE
  5
522
330
40B
100
AcDbEntity
  8
2-43THIN
  6
PHANTOM2
 62
     2
100
AcDbLine
 10
437.141389757923
 20
-845.595710223492
 30
0.0
 11
333.217608057346
 21
-905.5957915251481
 31
0.0
  0
LINE
  5
523
330
40B
100
AcDbEntity
  8
2-43THIN
  6
PHANTOM2
 62
     2
100
AcDbLine
 10
442.1414840207119
 20
-854.255937877556
 30
0.0
 11
338.218052270742
 21
-914.2563691298178
 31
0.0
  0
LINE
  5
524
330
40B
100
AcDbEntity
  8
2-43THIN
  6
PHANTOM2
 62
     2
100
AcDbLine
 10
398.600629585082
 20
-838.8420134725418
 30
0.0
 11
382.5238987317399
 21
-810.99644372939
 31
0.0
  0
LINE
  5
525
330
40B
100
AcDbEntity
  8
2-43THIN
  6
PHANTOM2
 62
     2
100
AcDbLine
 10
262.809645773773
 20
-658.6443974256218
 30
0.0
 11
224.684276970609
 21
-592.6097678689599
 31
0.0
  0
LINE
  5
526
330
40B
100
AcDbEntity
  8
2-43THIN
  6
PHANTOM2
 62
     2
100
AcDbLine
 10
258.479356971439
 20
-661.1444445570168
 30
0.0
 11
220.353988168275
 21
-595.110164950961
 31
0.0
  0
LINE
  5
527
330
40B
100
AcDbEntity
  8
2-43THIN
  6
PHANTOM2
 62
     2
100
AcDbLine
 10
140.246794880539
 20
-641.359987029944
 30
0.0
 11
304.791470258344
 21
-546.3602957405798
 31
0.0
  0
LINE
  5
528
330
40B
100
AcDbEntity
  8
2-43THIN
  6
PHANTOM2
 62
     2
100
AcDbLine
 10
137.746747749144
 20
-637.029348277004
 30
0.0
 11
302.291073176344
 21
-542.0296569876398
 31
0.0
  0
LINE
  5
529
330
40B
100
AcDbEntity
  8
2-43THIN
  6
PHANTOM2
 62
     2
100
AcDbLine
 10
67.870010485933
 20
-215.999924382895
 30
0.0
 11
-80.474051523901
 21
40.940809773415
 31
0.0
  0
LINE
  5
52A
330
40B
100
AcDbEntity
  8
2-43THIN
  6
PHANTOM2
 62
     2
100
AcDbLine
 10
-80.474051523901
 20
40.940809773415
 30
0.0
 11
-102.125320560271
 21
28.440574116442
 31
0.0
  0
LINE
  5
52B
330
40B
100
AcDbEntity
  8
2-43THIN
  6
PHANTOM2
 62
     2
100
AcDbLine
 10
-5.586021578498
 20
-138.770024980144
 30
0.0
 11
-102.125320560271
 21
28.440574116442
 31
0.0
  0
LINE
  5
52C
330
40B
100
AcDbEntity
  8
2-43THIN
  6
PHANTOM2
 62
     2
100
AcDbLine
 10
-53.865907124619
 20
-85.14709357706101
 30
0.0
 11
-40.87556564352399
 21
-77.64765208408999
 31
0.0
  0
LINE
  5
52D
330
40B
100
AcDbEntity
  8
2-43THIN
  6
PHANTOM2
 62
     2
100
AcDbLine
 10
-53.375101399286
 20
-55.997607874841
 30
0.0
 11
-66.36544288038
 21
-63.497049367813
 31
0.0
  0
LINE
  5
52E
330
40B
100
AcDbEntity
  8
2-43THIN
  6
PHANTOM2
 62
     2
100
AcDbLine
 10
-127.478367110065
 20
-127.64719490956
 30
0.0
 11
-79.84641511150498
 21
-100.146676464218
 31
0.0
  0
LINE
  5
52F
330
40B
100
AcDbEntity
  8
2-43THIN
  6
PHANTOM2
 62
     2
100
AcDbLine
 10
-133.728484938551
 20
-116.822522755542
 30
0.0
 11
-82.83096885731898
 21
-204.979279889349
 31
0.0
  0
LINE
  5
530
330
40B
100
AcDbEntity
  8
2-43THIN
  6
PHANTOM2
 62
     2
100
AcDbLine
 10
-82.83096885731898
 20
-204.979279889349
 30
0.0
 11
-100.151599140749
 21
-214.97946841493
 31
0.0
  0
LINE
  5
531
330
40B
100
AcDbEntity
  8
2-43THIN
  6
PHANTOM2
 62
     2
100
AcDbLine
 10
-152.96824434692
 20
-113.497292094496
 30
0.0
 11
-100.821229625901
 21
-203.819543580077
 31
0.0
  0
LINE
  5
532
330
40B
100
AcDbEntity
  8
2-43THIN
  6
PHANTOM2
 62
     2
100
AcDbLine
 10
-92.346125842569
 20
-78.497332156182
 30
0.0
 11
-152.96824434692
 21
-113.497292094496
 31
0.0
  0
LINE
  5
533
330
40B
100
AcDbEntity
  8
2-43THIN
  6
PHANTOM2
 62
     2
100
AcDbLine
 10
-120.150226438876
 20
-180.340657502314
 30
0.0
 11
-90.151235639867
 21
-232.300273673662
 31
0.0
  0
LINE
  5
534
330
40B
100
AcDbEntity
  8
2-43THIN
  6
PHANTOM2
 62
     2
100
AcDbLine
 10
-120.150226438876
 20
-180.340657502314
 30
0.0
 11
-198.092450300747
 21
-225.340805966208
 31
0.0
  0
LINE
  5
535
330
40B
100
AcDbEntity
  8
2-43THIN
  6
PHANTOM2
 62
     2
100
AcDbLine
 10
-198.092450300747
 20
-225.340805966208
 30
0.0
 11
-168.093634477041
 21
-277.300072186949
 31
0.0
  0
LINE
  5
536
330
40B
100
AcDbEntity
  8
2-43THIN
  6
PHANTOM2
 62
     2
100
AcDbLine
 10
-90.151235639867
 20
-232.300273673662
 30
0.0
 11
-168.093634477041
 21
-277.300072186949
 31
0.0
  0
LINE
  5
537
330
40B
100
AcDbEntity
  8
2-43THIN
  6
PHANTOM2
 62
     2
100
AcDbLine
 10
-105.820449012174
 20
-195.159665876621
 30
0.0
 11
-110.151087765116
 21
-197.659713008015
 31
0.0
  0
LINE
  5
538
330
40B
100
AcDbEntity
  8
2-43THIN
  6
PHANTOM2
 62
     2
100
AcDbLine
 10
-188.093136651684
 20
-242.659861471909
 30
0.0
 11
-192.422550577502
 21
-245.159558652698
 31
0.0
  0
LINE
  5
539
330
40B
100
AcDbEntity
  8
2-43THIN
  6
PHANTOM2
 62
     2
100
AcDbLine
 10
-192.422550577502
 20
-245.159558652698
 30
0.0
 11
-182.423236928439
 21
-262.479314059611
 31
0.0
  0
LINE
  5
53A
330
40B
100
AcDbEntity
  8
2-43THIN
  6
PHANTOM2
 62
     2
100
AcDbLine
 10
-178.093473052014
 20
-259.979616878822
 30
0.0
 11
-182.423236928439
 21
-262.479314059611
 31
0.0
  0
LINE
  5
53B
330
40B
100
AcDbEntity
  8
2-43THIN
  6
PHANTOM2
 62
     2
100
AcDbLine
 10
-40.390534103195
 20
31.514540242165
 30
0.0
 11
-36.061120177376
 21
34.01458737356
 31
0.0
  0
ARC
  5
53C
330
40B
100
AcDbEntity
  8
2-43THIN
  6
PHANTOM2
 62
     2
100
AcDbCircle
 10
332.671685111521
 20
-609.649562790835
 30
0.0
 40
7.499999910247999
100
AcDbArc
 50
300.0
 51
390.0
  0
ARC
  5
53D
330
40B
100
AcDbEntity
  8
2-43THIN
  6
PHANTOM2
 62
     2
100
AcDbCircle
 10
332.671685111521
 20
-609.649562790835
 30
0.0
 40
12.50000053391
100
AcDbArc
 50
300.0
 51
390.0
  0
ARC
  5
53E
330
40B
100
AcDbEntity
  8
2-43THIN
  6
PHANTOM2
 62
     2
100
AcDbCircle
 10
180.17055984947
 20
-345.510344662968
 30
0.0
 40
7.499999910247999
100
AcDbArc
 50
30.0
 51
120.0
  0
ARC
  5
53F
330
40B
100
AcDbEntity
  8
2-43THIN
  6
PHANTOM2
 62
     2
100
AcDbCircle
 10
180.17055984947
 20
-345.510344662968
 30
0.0
 40
12.50000053391
100
AcDbArc
 50
30.0
 51
120.0
  0
ARC
  5
540
330
40B
100
AcDbEntity
  8
2-43THIN
  6
PHANTOM2
 62
     2
100
AcDbCircle
 10
-30.605215249882
 20
-155.434672852067
 30
0.0
 40
29.999999640991
100
AcDbArc
 50
37.232543945312
 51
202.767440795898
  0
ARC
  5
541
330
40B
100
AcDbEntity
  8
2-43THIN
  6
PHANTOM2
 62
     2
100
AcDbCircle
 10
-170.607154706778
 20
87.055200967763
 30
0.0
 40
499.999977612587
100
AcDbArc
 50
292.665649414063
 51
307.334320068359
  0
ARC
  5
542
330
40B
100
AcDbEntity
  8
2-43THIN
  6
PHANTOM2
 62
     2
100
AcDbCircle
 10
391.3730997132039
 20
165.241865328133
 30
0.0
 40
499.999977612587
100
AcDbArc
 50
217.232650756836
 51
238.49772644043
  0
ARC
  5
543
330
40B
100
AcDbEntity
  8
2-43THIN
  6
PHANTOM2
 62
     2
100
AcDbCircle
 10
114.430938653916
 20
-286.64690293057
 30
0.0
 40
29.999999640991
100
AcDbArc
 50
307.334106445313
 51
418.4972991943358
  0
ARC
  5
544
330
40B
100
AcDbEntity
  8
2-43THIN
  6
PHANTOM2
 62
     2
100
AcDbCircle
 10
362.188618950354
 20
-835.773996507125
 30
0.0
 40
36.541123270528
100
AcDbArc
 50
244.815795898438
 51
355.184173583984
  0
ARC
  5
545
330
40B
100
AcDbEntity
  8
2-43THIN
  6
PHANTOM2
 62
     2
100
AcDbCircle
 10
348.250436252101
 20
-811.63265393164
 30
0.0
 40
30.280121431388
100
AcDbArc
 50
217.549194335938
 51
382.4507904052729
  0
ARC
  5
546
330
40B
100
AcDbEntity
  8
2-43THIN
  6
PHANTOM2
 62
     2
100
AcDbCircle
 10
348.250436252101
 20
-811.63265393164
 30
0.0
 40
34.280119743126
100
AcDbArc
 50
217.324005126953
 51
382.6759796142578
  0
ARC
  5
547
330
40B
100
AcDbEntity
  8
2-43THIN
  6
PHANTOM2
 62
     2
100
AcDbCircle
 10
432.141645445739
 20
-836.936182470642
 30
0.0
 40
10.000001247325
100
AcDbArc
 50
300.0
 51
390.0
  0
ARC
  5
548
330
40B
100
AcDbEntity
  8
2-43THIN
  6
PHANTOM2
 62
     2
100
AcDbCircle
 10
432.141645445739
 20
-836.936182470642
 30
0.0
 40
20.00000249465
100
AcDbArc
 50
300.0
 51
390.0
  0
ARC
  5
549
330
40B
100
AcDbEntity
  8
2-43THIN
  6
PHANTOM2
 62
     2
100
AcDbCircle
 10
181.117526190113
 20
-697.1491126860139
 30
0.0
 40
7.499999910247999
100
AcDbArc
 50
210.0
 51
300.0
  0
ARC
  5
54A
330
40B
100
AcDbEntity
  8
2-43THIN
  6
PHANTOM2
 62
     2
100
AcDbCircle
 10
181.117526190113
 20
-697.1491126860139
 30
0.0
 40
12.50000053391
100
AcDbArc
 50
210.0
 51
300.0
  0
ARC
  5
54B
330
40B
100
AcDbEntity
  8
2-43THIN
  6
PHANTOM2
 62
     2
100
AcDbCircle
 10
28.616750878669
 20
-433.0098945581479
 30
0.0
 40
7.499999910247999
100
AcDbArc
 50
120.0
 51
210.0
  0
ARC
  5
54C
330
40B
100
AcDbEntity
  8
2-43THIN
  6
PHANTOM2
 62
     2
100
AcDbCircle
 10
28.616750878669
 20
-433.0098945581479
 30
0.0
 40
12.50000053391
100
AcDbArc
 50
120.0
 51
210.0
  0
ARC
  5
54D
330
40B
100
AcDbEntity
  8
2-43THIN
  6
PHANTOM2
 62
     2
100
AcDbCircle
 10
-519.310012118284
 20
-360.541073154086
 30
0.0
 40
499.999977612587
100
AcDbArc
 50
1.502243041992
 51
22.767318725586
  0
ARC
  5
54E
330
40B
100
AcDbEntity
  8
2-43THIN
  6
PHANTOM2
 62
     2
100
AcDbCircle
 10
10.508206805159
 20
-346.6462843310119
 30
0.0
 40
29.999999640991
100
AcDbArc
 50
181.502670288086
 51
292.6658782958979
  0
ARC
  5
54F
330
40B
100
AcDbEntity
  8
2-43THIN
  6
PHANTOM2
 62
     2
100
AcDbCircle
 10
328.218563646375
 20
-896.936613722905
 30
0.0
 40
10.000001247325
100
AcDbArc
 50
210.0
 51
300.0
  0
ARC
  5
550
330
40B
100
AcDbEntity
  8
2-43THIN
  6
PHANTOM2
 62
     2
100
AcDbCircle
 10
328.218563646375
 20
-896.936613722905
 30
0.0
 40
20.00000249465
100
AcDbArc
 50
210.0
 51
300.0
  0
ARC
  5
551
330
40B
100
AcDbEntity
  8
2-43THIN
  6
PHANTOM2
 62
     2
100
AcDbCircle
 10
-190.381996694323
 20
-102.948412968853
 30
0.0
 40
12.499981395987
100
AcDbArc
 50
210.804473024656
 51
390.8044577658671
  0
LINE
  5
552
330
40B
100
AcDbEntity
  8
2-43THIN
  6
PHANTOM2
 62
     2
100
AcDbLine
 10
-221.974171131033
 20
-25.557407665381
 30
0.0
 11
-179.646223459338
 21
-96.546462620219
 31
0.0
  0
LINE
  5
553
330
40B
100
AcDbEntity
  8
2-43THIN
  6
PHANTOM2
 62
     2
100
AcDbLine
 10
-243.447150110515
 20
-38.36067810473601
 30
0.0
 11
-201.118852911126
 21
-109.349715860206
 31
0.0
  0
ARC
  5
554
330
40B
100
AcDbEntity
  8
2-43THIN
  6
PHANTOM2
 62
     2
100
AcDbCircle
 10
-228.713865406523
 20
-38.660885048868
 30
0.0
 40
14.735319600602
100
AcDbArc
 50
62.77981482153099
 51
178.834136110594
  0
LINE
  5
555
330
40B
100
AcDbEntity
  8
2-43THIN
  6
PHANTOM2
 62
     2
100
AcDbLine
 10
-258.507950714425
 20
30.834276234893
 30
0.0
 11
-225.66658777637
 21
-24.243705734512
 31
0.0
  0
LINE
  5
556
330
40B
100
AcDbEntity
  8
2-43THIN
  6
PHANTOM2
 62
     2
100
AcDbLine
 10
-275.685893825536
 20
20.59126108942
 30
0.0
 11
-242.844846016437
 21
-34.487437134742
 31
0.0
  0
ARC
  5
557
330
40B
100
AcDbEntity
  8
2-43THIN
  6
PHANTOM2
 62
     2
100
AcDbCircle
 10
-181.20673679115
 20
76.92541489503899
 30
0.0
 40
110.000006885602
100
AcDbArc
 50
149.817107302
 51
210.805892092039
  0
ARC
  5
558
330
40B
100
AcDbEntity
  8
2-43THIN
  6
PHANTOM2
 62
     2
100
AcDbCircle
 10
-181.20673679115
 20
76.92541489503899
 30
0.0
 40
90.00000165696297
100
AcDbArc
 50
149.817107302
 51
210.805892092039
  0
ARC
  5
559
330
40B
100
AcDbEntity
  8
2-43THIN
  6
PHANTOM2
 62
     2
100
AcDbCircle
 10
-227.79928212412
 20
251.405522474241
 30
0.0
 40
25.068602322612
100
AcDbArc
 50
186.5695792258279
 51
235.5716696799299
  0
ARC
  5
55A
330
40B
100
AcDbEntity
  8
2-43THIN
  6
PHANTOM2
 62
     2
100
AcDbCircle
 10
-219.774459117921
 20
246.737498860892
 30
0.0
 40
25.068602322612
100
AcDbArc
 50
186.5695792258279
 51
235.5716696799299
  0
ARC
  5
55B
330
40B
100
AcDbEntity
  8
2-43THIN
  6
PHANTOM2
 62
     2
100
AcDbCircle
 10
-222.983934488431
 20
248.604029890087
 30
0.0
 40
25.068659736383
100
AcDbArc
 50
244.064208132078
 51
269.5329276144999
  0
ARC
  5
55C
330
40B
100
AcDbEntity
  8
2-43THIN
  6
PHANTOM2
 62
     2
100
AcDbCircle
 10
-218.808531451508
 20
246.176079639314
 30
0.0
 40
15.041479903298
100
AcDbArc
 50
64.07092199926601
 51
235.563262087156
  0
ARC
  5
55D
330
40B
100
AcDbEntity
  8
2-43THIN
  6
PHANTOM2
 62
     2
100
AcDbCircle
 10
-215.598007497917
 20
244.309600208226
 30
0.0
 40
15.041479903298
100
AcDbArc
 50
64.07092199926601
 51
235.563262087156
  0
ARC
  5
55E
330
40B
100
AcDbEntity
  8
2-43THIN
  6
PHANTOM2
 62
     2
100
AcDbCircle
 10
-227.79928212412
 20
251.405522474241
 30
0.0
 40
25.068602322612
100
AcDbArc
 50
64.06251440649199
 51
113.064604860594
  0
ARC
  5
55F
330
40B
100
AcDbEntity
  8
2-43THIN
  6
PHANTOM2
 62
     2
100
AcDbCircle
 10
-219.774459117921
 20
246.737498860892
 30
0.0
 40
25.068602322612
100
AcDbArc
 50
64.06251440649199
 51
113.064604860594
  0
ARC
  5
560
330
40B
100
AcDbEntity
  8
2-43THIN
  6
PHANTOM2
 62
     2
100
AcDbCircle
 10
-222.983934488431
 20
248.604029890087
 30
0.0
 40
25.068659736383
100
AcDbArc
 50
30.10125647192201
 51
55.56997595434399
  0
ARC
  5
561
330
40B
100
AcDbEntity
  8
2-43THIN
  6
PHANTOM2
 62
     2
100
AcDbCircle
 10
23.873769211636
 20
395.626351309448
 30
0.0
 40
14.735319600602
100
AcDbArc
 50
120.800047975828
 51
236.854369264891
  0
ARC
  5
562
330
40B
100
AcDbEntity
  8
2-43THIN
  6
PHANTOM2
 62
     2
100
AcDbCircle
 10
-53.10335026435001
 20
297.179352640376
 30
0.0
 40
110.000006885602
100
AcDbArc
 50
88.82829199438297
 51
149.817107302
  0
ARC
  5
563
330
40B
100
AcDbEntity
  8
2-43THIN
  6
PHANTOM2
 62
     2
100
AcDbCircle
 10
-53.10335026435001
 20
297.179352640376
 30
0.0
 40
90.00000165696297
100
AcDbArc
 50
88.82829199438297
 51
149.817107302
  0
ARC
  5
564
330
40B
100
AcDbEntity
  8
2-43THIN
  6
PHANTOM2
 62
     2
100
AcDbCircle
 10
-212.887654691046
 20
242.731743010559
 30
0.0
 40
12.000000403194
100
AcDbArc
 50
80.57723913793699
 51
219.056944948484
  0
ARC
  5
565
330
40B
100
AcDbEntity
  8
2-43THIN
  6
PHANTOM2
 62
     2
100
AcDbCircle
 10
-210.480748726064
 20
241.332360430517
 30
0.0
 40
12.000000403194
100
AcDbArc
 50
95.725386720945
 51
203.908797365477
  0
ARC
  5
566
330
40B
100
AcDbEntity
  8
2-43THIN
  6
PHANTOM2
 62
     2
100
AcDbCircle
 10
-178.727523760507
 20
222.864673284703
 30
0.0
 40
15.000040830332
100
AcDbArc
 50
239.817107302
 51
419.8171073019999
  0
ARC
  5
567
330
40B
100
AcDbEntity
  8
2-43THIN
  6
PHANTOM2
 62
     2
100
AcDbCircle
 10
-743.6482016833279
 20
550.2797603224978
 30
0.0
 40
19.999940979895
100
AcDbArc
 50
59.81710730199999
 51
239.817107302
  0
LINE
  5
568
330
40B
100
AcDbEntity
  8
2-43THIN
  6
PHANTOM2
 62
     2
100
AcDbLine
 10
-50.854448468197
 20
407.1560994526658
 30
0.0
 11
13.258087540801
 21
405.84504689946
 31
0.0
  0
LINE
  5
569
330
40B
100
AcDbEntity
  8
2-43THIN
  6
PHANTOM2
 62
     2
100
AcDbLine
 10
-51.26293550348699
 20
387.1611753514489
 30
0.0
 11
12.848620719906
 21
385.848673089362
 31
0.0
  0
LINE
  5
56A
330
40B
100
AcDbEntity
  8
2-43THIN
  6
PHANTOM2
 62
     2
100
AcDbLine
 10
-186.26858092814
 20
209.897650634798
 30
0.0
 11
-211.138703136184
 21
224.363604268913
 31
0.0
  0
LINE
  5
56B
330
40B
100
AcDbEntity
  8
2-43THIN
  6
PHANTOM2
 62
     2
100
AcDbLine
 10
-422.5948239061358
 20
506.873178303517
 30
0.0
 11
-427.579306975882
 21
479.1193386661499
 31
0.0
  0
LINE
  5
56C
330
40B
100
AcDbEntity
  8
2-43THIN
  6
PHANTOM2
 62
     2
100
AcDbLine
 10
-436.3130591754879
 20
464.102100536257
 30
0.0
 11
-457.9725325713758
 21
446.045955436759
 31
0.0
  0
LINE
  5
56D
330
40B
100
AcDbEntity
  8
2-43THIN
  6
PHANTOM2
 62
     2
100
AcDbLine
 10
-444.644429293447
 20
468.9617604240059
 30
0.0
 11
-449.629611418581
 21
441.207886387901
 31
0.0
  0
LINE
  5
56E
330
40B
100
AcDbEntity
  8
2-43THIN
  6
PHANTOM2
 62
     2
100
AcDbLine
 10
-297.700523624283
 20
523.4285216364538
 30
0.0
 11
-301.463143002195
 21
502.479506895808
 31
0.0
  0
LINE
  5
56F
330
40B
100
AcDbEntity
  8
2-43THIN
  6
PHANTOM2
 62
     2
100
AcDbLine
 10
-296.037356518943
 20
522.4613420117898
 30
0.0
 11
-312.385049952249
 21
508.8318225726249
 31
0.0
  0
LINE
  5
570
330
40B
100
AcDbEntity
  8
2-43THIN
  6
PHANTOM2
 62
     2
100
AcDbLine
 10
-270.102858495225
 20
507.3771477097319
 30
0.0
 11
-273.865930597044
 21
486.430212935877
 31
0.0
  0
LINE
  5
571
330
40B
100
AcDbEntity
  8
2-43THIN
  6
PHANTOM2
 62
     2
100
AcDbLine
 10
-268.439026733235
 20
506.4107015391919
 30
0.0
 11
-284.78780314836
 21
492.781829557307
 31
0.0
  0
LINE
  5
572
330
40B
100
AcDbEntity
  8
2-43THIN
  6
PHANTOM2
 62
     2
100
AcDbLine
 10
-251.785647428752
 20
439.6696498755799
 30
0.0
 11
-296.636491324946
 21
189.969650561112
 31
0.0
  0
LINE
  5
573
330
40B
100
AcDbEntity
  8
2-43THIN
  6
PHANTOM2
 62
     2
100
AcDbLine
 10
-388.417695993306
 20
113.454971323056
 30
0.0
 11
-296.636141797252
 21
189.969667760481
 31
0.0
  0
LINE
  5
574
330
40B
100
AcDbEntity
  8
2-43THIN
  6
PHANTOM2
 62
     2
100
AcDbLine
 10
-441.947343654751
 20
144.589261836644
 30
0.0
 11
-438.1847242768399
 21
165.538276577292
 31
0.0
  0
LINE
  5
575
330
40B
100
AcDbEntity
  8
2-43THIN
  6
PHANTOM2
 62
     2
100
AcDbLine
 10
-319.973189398077
 20
322.430140894221
 30
0.0
 11
-568.0342238657808
 21
256.810568777685
 31
0.0
  0
LINE
  5
576
330
40B
100
AcDbEntity
  8
2-43THIN
  6
PHANTOM2
 62
     2
100
AcDbLine
 10
-318.04691476507
 20
325.742763068326
 30
0.0
 11
-376.314636185711
 21
546.0140611624519
 31
0.0
  0
LINE
  5
577
330
40B
100
AcDbEntity
  8
2-43THIN
  6
PHANTOM2
 62
     2
100
AcDbLine
 10
-387.858008246143
 20
552.7275142881088
 30
0.0
 11
-397.390971031739
 21
550.206631110069
 31
0.0
  0
LINE
  5
578
330
40B
100
AcDbEntity
  8
2-43THIN
  6
PHANTOM2
 62
     2
100
AcDbLine
 10
-400.5451497213488
 20
544.7831980722538
 30
0.0
 11
-405.530681374175
 21
517.02930683678
 31
0.0
  0
LINE
  5
579
330
40B
100
AcDbEntity
  8
2-43THIN
  6
PHANTOM2
 62
     2
100
AcDbLine
 10
-335.111334587161
 20
296.402941958661
 30
0.0
 11
-400.730259246417
 21
544.4650594081839
 31
0.0
  0
LINE
  5
57A
330
40B
100
AcDbEntity
  8
2-43THIN
  6
PHANTOM2
 62
     2
100
AcDbLine
 10
-337.036944563519
 20
293.091053238681
 30
0.0
 11
-557.3085577866001
 21
234.822615563284
 31
0.0
  0
LINE
  5
57B
330
40B
100
AcDbEntity
  8
2-43THIN
  6
PHANTOM2
 62
     2
100
AcDbLine
 10
-559.8770080972278
 20
251.652229499858
 30
0.0
 11
-554.892840156437
 21
279.40535288247
 31
0.0
  0
LINE
  5
57C
330
40B
100
AcDbEntity
  8
2-43THIN
  6
PHANTOM2
 62
     2
100
AcDbLine
 10
-546.1707077891419
 20
294.402398284244
 30
0.0
 11
-524.5115495222108
 21
312.457827128987
 31
0.0
  0
LINE
  5
57D
330
40B
100
AcDbEntity
  8
2-43THIN
  6
PHANTOM2
 62
     2
100
AcDbLine
 10
-568.219333390849
 20
256.492430113614
 30
0.0
 11
-546.561223706998
 21
274.54780736025
 31
0.0
  0
LINE
  5
57E
330
40B
100
AcDbEntity
  8
2-43THIN
  6
PHANTOM2
 62
     2
100
AcDbLine
 10
-568.8515459206008
 20
241.535386832923
 30
0.0
 11
-571.373861608152
 21
251.068979876431
 31
0.0
  0
LINE
  5
57F
330
40B
100
AcDbEntity
  8
2-43THIN
  6
PHANTOM2
 62
     2
100
AcDbLine
 10
-418.0390136304789
 20
153.820128171154
 30
0.0
 11
-574.8798842125609
 21
245.041707366919
 31
0.0
  0
LINE
  5
580
330
40B
100
AcDbEntity
  8
2-43THIN
  6
PHANTOM2
 62
     2
100
AcDbLine
 10
-443.611593741911
 20
145.557088918589
 30
0.0
 11
-427.2624334003539
 21
159.185279044456
 31
0.0
  0
LINE
  5
581
330
40B
100
AcDbEntity
  8
2-43THIN
  6
PHANTOM2
 62
     2
100
AcDbLine
 10
-469.544974385072
 20
160.63993670798
 30
0.0
 11
-465.783054062547
 21
181.5889170498899
 31
0.0
  0
LINE
  5
582
330
40B
100
AcDbEntity
  8
2-43THIN
  6
PHANTOM2
 62
     2
100
AcDbLine
 10
-471.2082102878888
 20
161.608514443419
 30
0.0
 11
-454.860448057106
 21
175.236635771809
 31
0.0
  0
LINE
  5
583
330
40B
100
AcDbEntity
  8
2-43THIN
  6
PHANTOM2
 62
     2
100
AcDbLine
 10
-497.142989041824
 20
176.691293435335
 30
0.0
 11
-493.3796362097869
 21
197.639643519332
 31
0.0
  0
LINE
  5
584
330
40B
100
AcDbEntity
  8
2-43THIN
  6
PHANTOM2
 62
     2
100
AcDbLine
 10
-498.8054226930398
 20
177.65780840335
 30
0.0
 11
-482.457030204346
 21
191.287362241252
 31
0.0
  0
LINE
  5
585
330
40B
100
AcDbEntity
  8
2-43THIN
  6
PHANTOM2
 62
     2
100
AcDbLine
 10
-510.9400395691478
 20
184.716367340153
 30
0.0
 11
-507.1777697189289
 21
205.665364881432
 31
0.0
  0
LINE
  5
586
330
40B
100
AcDbEntity
  8
2-43THIN
  6
PHANTOM2
 62
     2
100
AcDbLine
 10
-512.6042896563068
 20
185.6841944220979
 30
0.0
 11
-496.255163713488
 21
199.313083603351
 31
0.0
  0
LINE
  5
587
330
40B
100
AcDbEntity
  8
2-43THIN
  6
PHANTOM2
 62
     2
100
AcDbLine
 10
-371.1661337353949
 20
234.411393819982
 30
0.0
 11
-498.6303136780438
 21
200.693707121626
 31
0.0
  0
LINE
  5
588
330
40B
100
AcDbEntity
  8
2-43THIN
  6
PHANTOM2
 62
     2
100
AcDbLine
 10
-369.238529789088
 20
237.725482902336
 30
0.0
 11
-434.8587837616419
 21
485.786133443609
 31
0.0
  0
LINE
  5
589
330
40B
100
AcDbEntity
  8
2-43THIN
  6
PHANTOM2
 62
     2
100
AcDbLine
 10
-414.2631386592209
 20
502.014234670524
 30
0.0
 11
-435.9226120551078
 21
483.958089571025
 31
0.0
  0
LINE
  5
58A
330
40B
100
AcDbEntity
  8
2-43THIN
  6
PHANTOM2
 62
     2
100
AcDbLine
 10
-352.175089752602
 20
267.06385430312
 30
0.0
 11
-417.795028596201
 21
515.125221099149
 31
0.0
  0
LINE
  5
58B
330
40B
100
AcDbEntity
  8
2-43THIN
  6
PHANTOM2
 62
     2
100
AcDbLine
 10
-354.10136438561
 20
263.751232129016
 30
0.0
 11
-527.969750861277
 21
217.757445087699
 31
0.0
  0
LINE
  5
58C
330
40B
100
AcDbEntity
  8
2-43THIN
  6
PHANTOM2
 62
     2
100
AcDbLine
 10
-538.536621716387
 20
200.767093809595
 30
0.0
 11
-534.77435186617
 21
221.716091350874
 31
0.0
  0
LINE
  5
58D
330
40B
100
AcDbEntity
  8
2-43THIN
  6
PHANTOM2
 62
     2
100
AcDbLine
 10
-540.200522275853
 20
201.734938090909
 30
0.0
 11
-523.8527600450709
 21
215.3630594193
 31
0.0
  0
LINE
  5
58E
330
40B
100
AcDbEntity
  8
2-43THIN
  6
PHANTOM2
 62
     2
100
AcDbLine
 10
-524.7381730782898
 20
192.742088702252
 30
0.0
 11
-520.97551930164
 21
213.690404387512
 31
0.0
  0
LINE
  5
58F
330
40B
100
AcDbEntity
  8
2-43THIN
  6
PHANTOM2
 62
     2
100
AcDbLine
 10
-526.402039239018
 20
193.709233928179
 30
0.0
 11
-510.054311406974
 21
207.338054311956
 31
0.0
  0
LINE
  5
590
330
40B
100
AcDbEntity
  8
2-43THIN
  6
PHANTOM2
 62
     2
100
AcDbLine
 10
-510.1722876277008
 20
207.407229044759
 30
0.0
 11
-537.2460361483128
 21
309.747871442267
 31
0.0
  0
LINE
  5
591
330
40B
100
AcDbEntity
  8
2-43THIN
  6
PHANTOM2
 62
     2
100
AcDbLine
 10
-537.8274027099158
 20
289.563647379369
 30
0.0
 11
-532.842570112476
 21
317.317504216105
 31
0.0
  0
LINE
  5
592
330
40B
100
AcDbEntity
  8
2-43THIN
  6
PHANTOM2
 62
     2
100
AcDbLine
 10
-285.845014410545
 20
381.1090496594271
 30
0.0
 11
-533.9060144795118
 21
315.488778487503
 31
0.0
  0
LINE
  5
593
330
40B
100
AcDbEntity
  8
2-43THIN
  6
PHANTOM2
 62
     2
100
AcDbLine
 10
-283.91804072215
 20
384.421706232269
 30
0.0
 11
-317.635761819243
 21
511.886585230306
 31
0.0
  0
LINE
  5
594
330
40B
100
AcDbEntity
  8
2-43THIN
  6
PHANTOM2
 62
     2
100
AcDbLine
 10
-311.499321790075
 20
531.453509544429
 30
0.0
 11
-315.261660437768
 21
510.5059101139238
 31
0.0
  0
LINE
  5
595
330
40B
100
AcDbEntity
  8
2-43THIN
  6
PHANTOM2
 62
     2
100
AcDbLine
 10
-309.835455629347
 20
530.486364318502
 30
0.0
 11
-326.182868332435
 21
516.85826018948
 31
0.0
  0
LINE
  5
596
330
40B
100
AcDbEntity
  8
2-43THIN
  6
PHANTOM2
 62
     2
100
AcDbLine
 10
-494.4376243236609
 20
383.349586986424
 30
0.0
 11
-753.7032349231979
 21
532.991550415357
 31
0.0
  0
LINE
  5
597
330
40B
100
AcDbEntity
  8
2-43THIN
  6
PHANTOM2
 62
     2
100
AcDbLine
 10
-493.7285070642489
 20
365.385766883635
 30
0.0
 11
-488.743640068071
 21
393.138924664985
 31
0.0
  0
LINE
  5
598
330
40B
100
AcDbEntity
  8
2-43THIN
  6
PHANTOM2
 62
     2
100
AcDbLine
 10
-251.716489895319
 20
439.7879756240008
 30
0.0
 11
-499.7775587617599
 21
374.169102562852
 31
0.0
  0
LINE
  5
599
330
40B
100
AcDbEntity
  8
2-43THIN
  6
PHANTOM2
 62
     2
100
AcDbLine
 10
-242.507359329803
 20
491.32706869757
 30
0.0
 11
-246.26819667051
 21
470.377440898379
 31
0.0
  0
LINE
  5
59A
330
40B
100
AcDbEntity
  8
2-43THIN
  6
PHANTOM2
 62
     2
100
AcDbLine
 10
-240.843424371601
 20
490.358525360869
 30
0.0
 11
-257.19017241804
 21
476.7311546859708
 31
0.0
  0
LINE
  5
59B
330
40B
100
AcDbEntity
  8
2-43THIN
  6
PHANTOM2
 62
     2
100
AcDbLine
 10
-151.983590469648
 20
438.6775536067849
 30
0.0
 11
-237.04484569811
 21
465.0136881358519
 31
0.0
  0
LINE
  5
59C
330
40B
100
AcDbEntity
  8
2-43THIN
  6
PHANTOM2
 62
     2
100
AcDbLine
 10
-205.008837785698
 20
215.013135553906
 30
0.0
 11
-259.005165480905
 21
122.174743315442
 31
0.0
  0
LINE
  5
59D
330
40B
100
AcDbEntity
  8
2-43THIN
  6
PHANTOM2
 62
     2
100
AcDbLine
 10
-222.29638303619
 20
225.068902247901
 30
0.0
 11
-276.293025860353
 21
132.22979375468
 31
0.0
  0
LINE
  5
59E
330
40B
100
AcDbEntity
  8
2-43THIN
  6
PHANTOM2
 62
     2
100
AcDbLine
 10
-162.40758175478
 20
248.076893351374
 30
0.0
 11
-179.870572830008
 21
258.234044248191
 31
0.0
  0
LINE
  5
59F
330
40B
100
AcDbEntity
  8
2-43THIN
  6
PHANTOM2
 62
     2
100
AcDbLine
 10
-171.185558374902
 20
235.831039877644
 30
0.0
 11
-196.056485604705
 21
250.295552402563
 31
0.0
  0
LINE
  5
5A0
330
40B
100
AcDbEntity
  8
2-43THIN
  6
PHANTOM2
 62
     2
100
AcDbLine
 10
-197.158782737149
 20
268.28907748806
 30
0.0
 11
-237.453349779113
 21
291.725219506016
 31
0.0
  0
LINE
  5
5A1
330
40B
100
AcDbEntity
  8
2-43THIN
  6
PHANTOM2
 62
     2
100
AcDbLine
 10
-227.325246168793
 20
216.423679913773
 30
0.0
 11
-267.62016273845
 21
239.859804732361
 31
0.0
  0
LINE
  5
5A2
330
40B
100
AcDbEntity
  8
2-43THIN
  6
PHANTOM2
 62
     2
100
AcDbLine
 10
-226.619598662112
 20
227.58137701315
 30
0.0
 11
-206.508552396769
 21
262.159246536313
 31
0.0
  0
LINE
  5
5A3
330
40B
100
AcDbEntity
  8
2-43THIN
  6
PHANTOM2
 62
     2
100
AcDbLine
 10
-202.1863509551899
 20
259.64602111757
 30
0.0
 11
-148.190303990202
 21
352.482998045892
 31
0.0
  0
LINE
  5
5A4
330
40B
100
AcDbEntity
  8
2-43THIN
  6
PHANTOM2
 62
     2
100
AcDbLine
 10
-184.898456177004
 20
249.590271622945
 30
0.0
 11
-130.901778954105
 21
342.428681060779
 31
0.0
  0
LINE
  5
5A5
330
40B
100
AcDbEntity
  8
2-43THIN
  6
PHANTOM2
 62
     2
100
AcDbLine
 10
-183.089113427106
 20
242.754512434299
 30
0.0
 11
-180.575870808995
 21
247.076364348184
 31
0.0
  0
LINE
  5
5A6
330
40B
100
AcDbEntity
  8
2-43THIN
  6
PHANTOM2
 62
     2
100
AcDbLine
 10
-180.575870808995
 20
247.076364348184
 30
0.0
 11
-206.508552396769
 21
262.159246536313
 31
0.0
  0
LINE
  5
5A7
330
40B
100
AcDbEntity
  8
2-43THIN
  6
PHANTOM2
 62
     2
100
AcDbLine
 10
-208.809855162746
 20
269.280528266928
 30
0.0
 11
-216.835027696638
 21
273.94853468091
 31
0.0
  0
LINE
  5
5A8
330
40B
100
AcDbEntity
  8
2-43THIN
  6
PHANTOM2
 62
     2
100
AcDbLine
 10
-209.02245967153
 20
257.836661168302
 30
0.0
 11
-244.995489928564
 21
278.75884431339
 31
0.0
  0
LINE
  5
5A9
330
40B
100
AcDbEntity
  8
2-43THIN
  6
PHANTOM2
 62
     2
100
AcDbLine
 10
-233.947804989482
 20
226.0603358274
 30
0.0
 11
-241.97329265233
 21
230.727625986625
 31
0.0
  0
LINE
  5
5AA
330
40B
100
AcDbEntity
  8
2-43THIN
  6
PHANTOM2
 62
     2
100
AcDbLine
 10
-224.105026730702
 20
231.904695835284
 30
0.0
 11
-260.077392331088
 21
252.827612434497
 31
0.0
  0
LINE
  5
5AB
330
40B
100
AcDbEntity
  8
2-43THIN
  6
PHANTOM2
 62
     2
100
AcDbLine
 10
-198.17231074419
 20
216.821114591769
 30
0.0
 11
-200.686252417688
 21
212.499228279146
 31
0.0
  0
LINE
  5
5AC
330
40B
100
AcDbEntity
  8
2-43THIN
  6
PHANTOM2
 62
     2
100
AcDbLine
 10
-200.686252417688
 20
212.499228279146
 30
0.0
 11
-226.619598662112
 21
227.58137701315
 31
0.0
  0
LINE
  5
5AD
330
40B
100
AcDbEntity
  8
2-43THIN
  6
PHANTOM2
 62
     2
100
AcDbLine
 10
-159.714957031645
 20
443.174319229123
 30
0.0
 11
-164.337426491563
 21
417.437527580266
 31
0.0
  0
LINE
  5
5AE
330
40B
100
AcDbEntity
  8
2-43THIN
  6
PHANTOM2
 62
     2
100
AcDbLine
 10
-164.338440675906
 20
417.436776926773
 30
0.0
 11
-359.199665781863
 21
254.986268736324
 31
0.0
  0
LINE
  5
5AF
330
40B
100
AcDbEntity
  8
2-43THIN
  6
PHANTOM2
 62
     2
100
AcDbLine
 10
-386.753829832578
 20
112.487826097128
 30
0.0
 11
-362.033743162785
 21
250.113958588798
 31
0.0
  0
LINE
  5
5B0
330
40B
100
AcDbEntity
  8
2-43THIN
  6
PHANTOM2
 62
     2
100
AcDbLine
 10
-353.089572520222
 20
92.90748783095899
 30
0.0
 11
-576.5980869460089
 21
222.903916736719
 31
0.0
  0
LINE
  5
5B1
330
40B
100
AcDbEntity
  8
2-43THIN
  6
PHANTOM2
 62
     2
100
AcDbLine
 10
-576.0116000057458
 20
230.466518676666
 30
0.0
 11
-565.2481747568399
 21
239.439472852104
 31
0.0
  0
LINE
  5
5B2
330
40B
100
AcDbEntity
  8
2-43THIN
  6
PHANTOM2
 62
     2
100
AcDbLine
 10
-566.1332382623649
 20
216.818519334424
 30
0.0
 11
-562.3719481977518
 21
237.766067166823
 31
0.0
  0
LINE
  5
5B3
330
40B
100
AcDbEntity
  8
2-43THIN
  6
PHANTOM2
 62
     2
100
AcDbLine
 10
-567.7971044230928
 20
217.785664560352
 30
0.0
 11
-551.450041247699
 21
231.413751490005
 31
0.0
  0
LINE
  5
5B4
330
40B
100
AcDbEntity
  8
2-43THIN
  6
PHANTOM2
 62
     2
100
AcDbLine
 10
-552.336187735042
 20
208.793445429606
 30
0.0
 11
-548.572485375311
 21
229.741812712973
 31
0.0
  0
LINE
  5
5B5
330
40B
100
AcDbEntity
  8
2-43THIN
  6
PHANTOM2
 62
     2
100
AcDbLine
 10
-553.9993204416439
 20
209.759925998883
 30
0.0
 11
-537.651627008338
 21
223.389445438049
 31
0.0
  0
LINE
  5
5B6
330
40B
100
AcDbEntity
  8
2-43THIN
  6
PHANTOM2
 62
     2
100
AcDbLine
 10
-539.5127733940158
 20
224.470915412725
 30
0.0
 11
-554.309791313754
 21
280.408783786726
 31
0.0
  0
LINE
  5
5B7
330
40B
100
AcDbEntity
  8
2-43THIN
  6
PHANTOM2
 62
     2
100
AcDbLine
 10
-302.909084704942
 20
351.769245749131
 30
0.0
 11
-550.96980404369
 21
286.15038988735
 31
0.0
  0
LINE
  5
5B8
330
40B
100
AcDbEntity
  8
2-43THIN
  6
PHANTOM2
 62
     2
100
AcDbLine
 10
-300.982145415285
 20
355.08260137736
 30
0.0
 11
-346.976247585558
 21
528.9502715982719
 31
0.0
  0
LINE
  5
5B9
330
40B
100
AcDbEntity
  8
2-43THIN
  6
PHANTOM2
 62
     2
100
AcDbLine
 10
-358.517207350872
 20
535.6645441748988
 30
0.0
 11
-414.4557059827858
 21
520.8660937456478
 31
0.0
  0
LINE
  5
5BA
330
40B
100
AcDbEntity
  8
2-43THIN
  6
PHANTOM2
 62
     2
100
AcDbLine
 10
-392.214547456252
 20
539.9249018965408
 30
0.0
 11
-413.8726227413659
 21
521.868825594517
 31
0.0
  0
LINE
  5
5BB
330
40B
100
AcDbEntity
  8
2-43THIN
  6
PHANTOM2
 62
     2
100
AcDbLine
 10
-574.8798842125609
 20
245.041707366919
 30
0.0
 11
-393.88599701041
 21
556.233852021474
 31
0.0
  0
LINE
  5
5BC
330
40B
100
AcDbEntity
  8
2-43THIN
  6
PHANTOM2
 62
     2
100
AcDbLine
 10
-576.5980869460089
 20
222.903916736719
 30
0.0
 11
-574.8798842125609
 21
245.041707366919
 31
0.0
  0
LINE
  5
5BD
330
40B
100
AcDbEntity
  8
2-43THIN
  6
PHANTOM2
 62
     2
100
AcDbLine
 10
-576.5980869460089
 20
222.903916736719
 30
0.0
 11
-375.492454423128
 21
568.673965313175
 31
0.0
  0
LINE
  5
5BE
330
40B
100
AcDbEntity
  8
2-43THIN
  6
PHANTOM2
 62
     2
100
AcDbLine
 10
-375.492454423128
 20
568.673965313175
 30
0.0
 11
-393.88599701041
 21
556.233852021474
 31
0.0
  0
LINE
  5
5BF
330
40B
100
AcDbEntity
  8
2-43THIN
  6
PHANTOM2
 62
     2
100
AcDbLine
 10
-237.04484569811
 20
465.0136881358519
 30
0.0
 11
-393.88599701041
 21
556.233852021474
 31
0.0
  0
LINE
  5
5C0
330
40B
100
AcDbEntity
  8
2-43THIN
  6
PHANTOM2
 62
     2
100
AcDbLine
 10
-418.0390136304789
 20
153.820128171154
 30
0.0
 11
-237.04484569811
 21
465.0136881358519
 31
0.0
  0
LINE
  5
5C1
330
40B
100
AcDbEntity
  8
2-43THIN
  6
PHANTOM2
 62
     2
100
AcDbLine
 10
-353.089572520222
 20
92.90748783095899
 30
0.0
 11
-418.0390136304789
 21
153.820128171154
 31
0.0
  0
LINE
  5
5C2
330
40B
100
AcDbEntity
  8
2-43THIN
  6
PHANTOM2
 62
     2
100
AcDbLine
 10
-353.089572520222
 20
92.90748783095899
 30
0.0
 11
-151.983590469648
 21
438.6775536067849
 31
0.0
  0
LINE
  5
5C3
330
40B
100
AcDbEntity
  8
2-43THIN
  6
PHANTOM2
 62
     2
100
AcDbLine
 10
-151.983590469648
 20
438.6775536067849
 30
0.0
 11
-375.492454423128
 21
568.673965313175
 31
0.0
  0
LINE
  5
5C4
330
40B
100
AcDbEntity
  8
2-43THIN
  6
PHANTOM2
 62
     2
100
AcDbLine
 10
-381.777806851084
 20
564.4229712594778
 30
0.0
 11
-384.254705879858
 21
550.6329984180638
 31
0.0
  0
LINE
  5
5C5
330
40B
100
AcDbEntity
  8
2-43THIN
  6
PHANTOM2
 62
     2
100
AcDbLine
 10
-365.0296685069069
 20
562.5877656592798
 30
0.0
 11
-381.3780953943389
 21
548.958910876765
 31
0.0
  0
LINE
  5
5C6
330
40B
100
AcDbEntity
  8
2-43THIN
  6
PHANTOM2
 62
     2
100
AcDbLine
 10
-366.692136556861
 20
563.5549796826828
 30
0.0
 11
-370.456188444285
 21
542.606595199946
 31
0.0
  0
LINE
  5
5C7
330
40B
100
AcDbEntity
  8
2-43THIN
  6
PHANTOM2
 62
     2
100
AcDbLine
 10
-351.231569396503
 20
554.5627433525678
 30
0.0
 11
-367.578563774422
 21
540.93325831214
 31
0.0
  0
LINE
  5
5C8
330
40B
100
AcDbEntity
  8
2-43THIN
  6
PHANTOM2
 62
     2
100
AcDbLine
 10
-352.895086029537
 20
555.5299057778638
 30
0.0
 11
-356.657075149538
 21
534.5823235467279
 31
0.0
  0
LINE
  5
5C9
330
40B
100
AcDbEntity
  8
2-43THIN
  6
PHANTOM2
 62
     2
100
AcDbLine
 10
-337.432037776587
 20
546.5370907879438
 30
0.0
 11
-353.780464664018
 21
532.908236005429
 31
0.0
  0
LINE
  5
5CA
330
40B
100
AcDbEntity
  8
2-43THIN
  6
PHANTOM2
 62
     2
100
AcDbLine
 10
-339.095903937315
 20
547.5042360138718
 30
0.0
 11
-342.857858658577
 21
526.5559547273478
 31
0.0
  0
LINE
  5
5CB
330
40B
100
AcDbEntity
  8
2-43THIN
  6
PHANTOM2
 62
     2
100
AcDbLine
 10
-323.63463772157
 20
538.512034082495
 30
0.0
 11
-339.981316970533
 21
524.8832652968238
 31
0.0
  0
LINE
  5
5CC
330
40B
100
AcDbEntity
  8
2-43THIN
  6
PHANTOM2
 62
     2
100
AcDbLine
 10
-325.297420900479
 20
539.4785318511408
 30
0.0
 11
-329.060143474604
 21
518.5316142766549
 31
0.0
  0
LINE
  5
5CD
330
40B
100
AcDbEntity
  8
2-43THIN
  6
PHANTOM2
 62
     2
100
AcDbLine
 10
-329.178784351981
 20
518.6000555553318
 30
0.0
 11
-431.519810675921
 21
491.526988890738
 31
0.0
  0
LINE
  5
5CE
330
40B
100
AcDbEntity
  8
2-43THIN
  6
PHANTOM2
 62
     2
100
AcDbLine
 10
-158.051056472179
 20
442.206474947808
 30
0.0
 11
-337.150409922245
 21
292.897669416466
 31
0.0
  0
LINE
  5
5CF
330
40B
100
AcDbEntity
  8
2-43THIN
  6
PHANTOM2
 62
     2
100
AcDbLine
 10
-372.954647740356
 20
104.462156333135
 30
0.0
 11
-339.983438720087
 21
288.025410867048
 31
0.0
  0
LINE
  5
5D0
330
40B
100
AcDbEntity
  8
2-43THIN
  6
PHANTOM2
 62
     2
100
AcDbLine
 10
-374.618548299821
 20
105.43000061445
 30
0.0
 11
-318.685116926652
 21
152.059682390482
 31
0.0
  0
LINE
  5
5D1
330
40B
100
AcDbEntity
  8
2-43THIN
  6
PHANTOM2
 62
     2
100
AcDbLine
 10
-273.834622558152
 20
401.7596645055808
 30
0.0
 11
-318.685116926652
 21
152.059682390482
 31
0.0
  0
LINE
  5
5D2
330
40B
100
AcDbEntity
  8
2-43THIN
  6
PHANTOM2
 62
     2
100
AcDbLine
 10
-199.447345003182
 20
466.28284538219
 30
0.0
 11
-271.002155220746
 21
406.6290924347139
 31
0.0
  0
LINE
  5
5D3
330
40B
100
AcDbEntity
  8
2-43THIN
  6
PHANTOM2
 62
     2
100
AcDbLine
 10
-201.110546507261
 20
467.250724062242
 30
0.0
 11
-230.48662657993
 21
303.703955797752
 31
0.0
  0
LINE
  5
5D4
330
40B
100
AcDbEntity
  8
2-43THIN
  6
PHANTOM2
 62
     2
100
AcDbLine
 10
-230.48662657993
 20
303.703955797752
 30
0.0
 11
-429.8141936868939
 21
137.53203221314
 31
0.0
  0
LINE
  5
5D5
330
40B
100
AcDbEntity
  8
2-43THIN
  6
PHANTOM2
 62
     2
100
AcDbLine
 10
-428.1488950166539
 20
136.564256729301
 30
0.0
 11
-424.386590767698
 21
157.512555215192
 31
0.0
  0
LINE
  5
5D6
330
40B
100
AcDbEntity
  8
2-43THIN
  6
PHANTOM2
 62
     2
100
AcDbLine
 10
-422.1532082251369
 20
156.214651434504
 30
0.0
 11
-486.052077626653
 21
397.767369170001
 31
0.0
  0
LINE
  5
5D7
330
40B
100
AcDbEntity
  8
2-43THIN
  6
PHANTOM2
 62
     2
100
AcDbLine
 10
-458.3627333602748
 20
426.19208076752
 30
0.0
 11
-480.0218228297318
 21
408.1352538120038
 31
0.0
  0
LINE
  5
5D8
330
40B
100
AcDbEntity
  8
2-43THIN
  6
PHANTOM2
 62
     2
100
AcDbLine
 10
-403.366985506838
 20
179.045158826988
 30
0.0
 11
-468.9876234058239
 21
427.1064912242779
 31
0.0
  0
LINE
  5
5D9
330
40B
100
AcDbEntity
  8
2-43THIN
  6
PHANTOM2
 62
     2
100
AcDbLine
 10
-208.437336321574
 20
341.614657422506
 30
0.0
 11
-403.299294881656
 21
179.164813888708
 31
0.0
  0
LINE
  5
5DA
330
40B
100
AcDbEntity
  8
2-43THIN
  6
PHANTOM2
 62
     2
100
AcDbLine
 10
-187.311923105316
 20
459.2257275545828
 30
0.0
 11
-208.436322137231
 21
341.615408076001
 31
0.0
  0
LINE
  5
5DB
330
40B
100
AcDbEntity
  8
2-43THIN
  6
PHANTOM2
 62
     2
100
AcDbLine
 10
-185.648721601237
 20
458.257848874531
 30
0.0
 11
-293.049766638109
 21
368.719874917577
 31
0.0
  0
LINE
  5
5DC
330
40B
100
AcDbEntity
  8
2-43THIN
  6
PHANTOM2
 62
     2
100
AcDbLine
 10
-295.884543074419
 20
363.847530371313
 30
0.0
 11
-340.73503744292
 21
114.147548256216
 31
0.0
  0
LINE
  5
5DD
330
40B
100
AcDbEntity
  8
2-43THIN
  6
PHANTOM2
 62
     2
100
AcDbLine
 10
-360.819715735292
 20
97.404313651089
 30
0.0
 11
-340.73503744292
 21
114.147548256216
 31
0.0
  0
LINE
  5
5DE
330
40B
100
AcDbEntity
  8
2-43THIN
  6
PHANTOM2
 62
     2
100
AcDbLine
 10
-359.155849574564
 20
96.437168425161
 30
0.0
 11
-317.933134277388
 21
325.936863145296
 31
0.0
  0
LINE
  5
5DF
330
40B
100
AcDbEntity
  8
2-43THIN
  6
PHANTOM2
 62
     2
100
AcDbLine
 10
-171.850762855942
 20
450.232118912748
 30
0.0
 11
-315.101085265151
 21
330.807671985834
 31
0.0
  0
LINE
  5
5E0
330
40B
100
AcDbEntity
  8
2-43THIN
  6
PHANTOM2
 62
     2
100
AcDbLine
 10
-173.5135804335889
 20
451.1993157367808
 30
0.0
 11
-186.387730934262
 21
379.526075302018
 31
0.0
  0
LINE
  5
5E1
330
40B
100
AcDbEntity
  8
2-43THIN
  6
PHANTOM2
 62
     2
100
AcDbLine
 10
-186.387730934262
 20
379.526075302018
 30
0.0
 11
-381.250319752256
 21
217.074799258707
 31
0.0
  0
LINE
  5
5E2
330
40B
100
AcDbEntity
  8
2-43THIN
  6
PHANTOM2
 62
     2
100
AcDbLine
 10
-388.2298889008361
 20
205.072306164441
 30
0.0
 11
-469.2901430406848
 21
183.629304498904
 31
0.0
  0
LINE
  5
5E3
330
40B
100
AcDbEntity
  8
2-43THIN
  6
PHANTOM2
 62
     2
100
AcDbLine
 10
-485.006343797031
 20
169.634235805518
 30
0.0
 11
-468.6585471675109
 21
183.261658078522
 31
0.0
  0
LINE
  5
5E4
330
40B
100
AcDbEntity
  8
2-43THIN
  6
PHANTOM2
 62
     2
100
AcDbLine
 10
-483.343073495476
 20
168.664959014692
 30
0.0
 11
-479.580803645258
 21
189.61395655597
 31
0.0
  0
LINE
  5
5E5
330
40B
100
AcDbEntity
  8
2-43THIN
  6
PHANTOM2
 62
     2
100
AcDbLine
 10
-480.8324665180359
 20
190.342809222668
 30
0.0
 11
-520.180951669573
 21
339.088426006057
 31
0.0
  0
LINE
  5
5E6
330
40B
100
AcDbEntity
  8
2-43THIN
  6
PHANTOM2
 62
     2
100
AcDbLine
 10
-524.1214519295238
 20
332.313798964386
 30
0.0
 11
-502.4626775890228
 21
350.369909665148
 31
0.0
  0
LINE
  5
5E7
330
40B
100
AcDbEntity
  8
2-43THIN
  6
PHANTOM2
 62
     2
100
AcDbLine
 10
-515.778461979253
 20
327.474331804756
 30
0.0
 11
-510.792615197471
 21
355.228939294985
 31
0.0
  0
LINE
  5
5E8
330
40B
100
AcDbEntity
  8
2-43THIN
  6
PHANTOM2
 62
     2
100
AcDbLine
 10
-268.780875318672
 20
410.4474554589489
 30
0.0
 11
-516.8416634548958
 21
344.8299977079429
 31
0.0
  0
LINE
  5
5E9
330
40B
100
AcDbEntity
  8
2-43THIN
  6
PHANTOM2
 62
     2
100
AcDbLine
 10
-266.853271372366
 20
413.761544541303
 30
0.0
 11
-288.296605366228
 21
494.8214319540899
 31
0.0
  0
LINE
  5
5EA
330
40B
100
AcDbEntity
  8
2-43THIN
  6
PHANTOM2
 62
     2
100
AcDbLine
 10
-283.902040587448
 20
515.4028174737248
 30
0.0
 11
-287.66399530871
 21
494.4545361872008
 31
0.0
  0
LINE
  5
5EB
330
40B
100
AcDbEntity
  8
2-43THIN
  6
PHANTOM2
 62
     2
100
AcDbLine
 10
-282.238558353151
 20
514.436354103815
 30
0.0
 11
-298.586251786458
 21
500.8068346646508
 31
0.0
  0
LINE
  5
5EC
330
40B
100
AcDbEntity
  8
2-43THIN
  6
PHANTOM2
 62
     2
100
AcDbLine
 10
-299.838963242316
 20
501.5356357332409
 30
0.0
 11
-448.584580025706
 21
462.187150581705
 31
0.0
  0
LINE
  5
5ED
330
40B
100
AcDbEntity
  8
2-43THIN
  6
PHANTOM2
 62
     2
100
AcDbLine
 10
-386.302250555792
 20
208.385696191409
 30
0.0
 11
-451.923203583733
 21
456.446312333943
 31
0.0
  0
LINE
  5
5EE
330
40B
100
AcDbEntity
  8
2-43THIN
  6
PHANTOM2
 62
     2
100
AcDbLine
 10
-400.5522784706768
 20
120.512831204472
 30
0.0
 11
-384.083033421142
 21
212.203256964044
 31
0.0
  0
LINE
  5
5EF
330
40B
100
AcDbEntity
  8
2-43THIN
  6
PHANTOM2
 62
     2
100
AcDbLine
 10
-402.2151304470608
 20
121.480727083892
 30
0.0
 11
-274.586221280985
 21
227.881801894748
 31
0.0
  0
LINE
  5
5F0
330
40B
100
AcDbEntity
  8
2-43THIN
  6
PHANTOM2
 62
     2
100
AcDbLine
 10
-228.708177237581
 20
483.301398933578
 30
0.0
 11
-274.586221280985
 21
227.881801894748
 31
0.0
  0
LINE
  5
5F1
330
40B
100
AcDbEntity
  8
2-43THIN
  6
PHANTOM2
 62
     2
100
AcDbLine
 10
-227.044276678115
 20
482.333554652264
 30
0.0
 11
-243.392737964285
 21
468.7053989251348
 31
0.0
  0
LINE
  5
5F2
330
40B
100
AcDbEntity
  8
2-43THIN
  6
PHANTOM2
 62
     2
100
AcDbLine
 10
-241.159670550679
 20
467.4067788896898
 30
0.0
 11
-482.713803596319
 21
403.5081902183918
 31
0.0
  0
LINE
  5
5F3
330
40B
100
AcDbEntity
  8
2-43THIN
  6
PHANTOM2
 62
     2
100
AcDbLine
 10
-502.0711474868249
 20
370.225251242636
 30
0.0
 11
-480.412619477806
 21
388.279247577867
 31
0.0
  0
LINE
  5
5F4
330
40B
100
AcDbEntity
  8
2-43THIN
  6
PHANTOM2
 62
     2
100
AcDbLine
 10
-451.493693991452
 20
173.278337802471
 30
0.0
 11
-503.116846976438
 21
368.427530860967
 31
0.0
  0
LINE
  5
5F5
330
40B
100
AcDbEntity
  8
2-43THIN
  6
PHANTOM2
 62
     2
100
AcDbLine
 10
-455.746525746975
 20
152.614931600637
 30
0.0
 11
-451.9838375715868
 21
173.56254823051
 31
0.0
  0
LINE
  5
5F6
330
40B
100
AcDbEntity
  8
2-43THIN
  6
PHANTOM2
 62
     2
100
AcDbLine
 10
-457.4087130667098
 20
153.583560934182
 30
0.0
 11
-441.0619994190088
 21
167.211630664467
 31
0.0
  0
LINE
  5
5F7
330
40B
100
AcDbEntity
  8
2-43THIN
  6
PHANTOM2
 62
     2
100
AcDbLine
 10
-405.294623851882
 20
175.7317688000199
 30
0.0
 11
-439.951020986407
 21
166.564850278075
 31
0.0
  0
LINE
  5
5F8
330
40B
100
AcDbEntity
  8
2-43THIN
  6
PHANTOM2
 62
     2
100
AcDbLine
 10
-414.350411979819
 20
128.538552566571
 30
0.0
 11
-406.13162462411
 21
174.292589738026
 31
0.0
  0
LINE
  5
5F9
330
40B
100
AcDbEntity
  8
2-43THIN
  6
PHANTOM2
 62
     2
100
AcDbLine
 10
-416.0139630115899
 20
129.506414047254
 30
0.0
 11
-252.536931022628
 21
265.792503519503
 31
0.0
  0
LINE
  5
5FA
330
40B
100
AcDbEntity
  8
2-43THIN
  6
PHANTOM2
 62
     2
100
AcDbLine
 10
-214.909659802008
 20
475.2749957154599
 30
0.0
 11
-252.536931022628
 21
265.792503519503
 31
0.0
  0
LINE
  5
5FB
330
40B
100
AcDbEntity
  8
2-43THIN
  6
PHANTOM2
 62
     2
100
AcDbLine
 10
-213.246177567711
 20
474.308532345551
 30
0.0
 11
-248.951501250353
 21
444.540561912331
 31
0.0
  0
LINE
  5
5FC
330
40B
100
AcDbEntity
  8
2-43THIN
  6
PHANTOM2
 62
     2
100
AcDbLine
 10
-249.789550605662
 20
443.1013312522309
 30
0.0
 11
-258.957517710687
 21
477.757676788649
 31
0.0
  0
LINE
  5
5FD
330
40B
100
AcDbEntity
  8
2-43THIN
  6
PHANTOM2
 62
     2
100
AcDbLine
 10
-256.304409857127
 20
499.352142602389
 30
0.0
 11
-260.068427345813
 21
478.4030590642659
 31
0.0
  0
LINE
  5
5FE
330
40B
100
AcDbEntity
  8
2-43THIN
  6
PHANTOM2
 62
     2
100
AcDbLine
 10
-254.641557880742
 20
498.3842467229679
 30
0.0
 11
-270.989320111524
 21
484.7561253945769
 31
0.0
  0
LINE
  5
5FF
330
40B
100
AcDbEntity
  8
2-43THIN
  6
PHANTOM2
 62
     2
100
AcDbLine
 10
-270.499142132651
 20
484.4712159111499
 30
0.0
 11
-465.6490342465339
 21
432.8480285274268
 31
0.0
  0
LINE
  5
600
330
40B
100
AcDbEntity
  8
2-43THIN
  6
PHANTOM2
 62
     2
100
AcDbLine
 10
-466.6940690794968
 20
431.0510415998819
 30
0.0
 11
-471.678552149243
 21
403.297201962516
 31
0.0
  0
LINE
  5
601
330
40B
100
AcDbEntity
  8
2-43THIN
  6
PHANTOM2
 62
     2
100
AcDbLine
 10
-474.3275922426609
 20
417.9267058560928
 30
0.0
 11
-733.5932372409351
 21
567.5693683404139
 31
0.0
  0
ARC
  5
602
330
40B
100
AcDbEntity
  8
2-43THIN
  6
PHANTOM2
 62
     2
100
AcDbCircle
 10
98.70593870074801
 20
394.095787223521
 30
0.0
 40
12.499981395987
100
AcDbArc
 50
268.829741579344
 51
448.829726320555
  0
LINE
  5
603
330
40B
100
AcDbEntity
  8
2-43THIN
  6
PHANTOM2
 62
     2
100
AcDbLine
 10
16.328225311909
 20
408.284062991847
 30
0.0
 11
98.96096805250799
 21
406.5928640330249
 31
0.0
  0
LINE
  5
604
330
40B
100
AcDbEntity
  8
2-43THIN
  6
PHANTOM2
 62
     2
100
AcDbLine
 10
15.816802896354
 20
383.2891415199759
 30
0.0
 11
98.45087495025101
 21
381.599409469404
 31
0.0
  0
LINE
  5
605
330
40B
100
AcDbEntity
  8
2-43THIN
  6
PHANTOM2
 62
     2
100
AcDbLine
 10
-192.572752108253
 20
196.212978623722
 30
0.0
 11
-210.036003076047
 21
206.369682679174
 31
0.0
  0
ARC
  5
606
330
40B
100
AcDbEntity
  8
2-43THIN
  6
PHANTOM2
 62
     2
100
AcDbCircle
 10
-177.490008448843
 20
222.145635673427
 30
0.0
 40
30.000103532578
100
AcDbArc
 50
239.817204999843
 51
419.8171073019999
  0
LINE
  5
607
330
40B
100
AcDbEntity
  8
2-43THIN
  6
PHANTOM2
 62
     2
100
AcDbLine
 10
-30.605390225186
 20
-125.434807176542
 30
0.0
 11
-216.126860674389
 21
195.897402801063
 31
0.0
  0
LINE
  5
608
330
40B
100
AcDbEntity
  8
2-43THIN
  6
PHANTOM2
 62
     2
100
AcDbLine
 10
-227.652353329786
 20
215.860116642603
 30
0.0
 11
-228.307596364585
 21
216.995029447761
 31
0.0
  0
LINE
  5
609
330
40B
100
AcDbEntity
  8
2-43THIN
  6
PHANTOM2
 62
     2
100
AcDbLine
 10
-56.586073187375
 20
-140.434390063699
 30
0.0
 11
-233.510921184955
 21
166.008180750868
 31
0.0
  0
LINE
  5
60A
330
40B
100
AcDbEntity
  8
2-43THIN
  6
PHANTOM2
 62
     2
100
AcDbLine
 10
-245.036395133192
 20
185.970870596459
 30
0.0
 11
-271.900061306497
 21
232.500066561994
 31
0.0
  0
ENDBLK
  5
60B
330
40B
100
AcDbEntity
  8
0
100
AcDbBlockEnd
  0
ENDSEC
  0
SECTION
  2
ENTITIES
  0
INSERT
  5
60C
330
406
100
AcDbEntity
  8
2-53DIM
 62
     7
100
AcDbBlockReference
  2
012_3
 10
3244.132844911151
 20
6085.282175626253
 30
0.0
  0
TEXT
  5
785
330
406
100
AcDbEntity
  8
0-F1TEXT
 62
     3
370
    -3
100
AcDbText
 10
10555.473
 20
633.32
 30
0.0
 40
53.295
  1
1/20
 41
0.614
100
AcDbText
  0
TEXT
  5
786
330
406
100
AcDbEntity
  8
0-F1TEXT
 62
     3
370
    -3
100
AcDbText
 10
9741.540285333334
 20
409.47
 30
0.0
 40
71.06
  1
配置図
 41
0.6760000000000001
 72
     1
 11
9820.0
 21
445.0
 31
0.0
100
AcDbText
 73
     2
  0
LINE
  5
787
330
406
100
AcDbEntity
  8
F-F4PAPAER
  6
DOT
 62
     6
 48
0.5
100
AcDbLine
 10
200.000030414478
 20
699.2005677388899
 30
0.0
 11
7500.000714040631
 21
699.2002615321098
 31
0.0
  0
LINE
  5
788
330
406
100
AcDbEntity
  8
F-F4PAPAER
  6
DOT
 62
     6
 48
0.5
100
AcDbLine
 10
7500.001413941844
 20
574.400263900462
 30
0.0
 11
200.000030414478
 21
574.399957693682
 31
0.0
  0
LINE
  5
789
330
406
100
AcDbEntity
  8
F-F4PAPAER
  6
DOT
 62
     6
 48
0.5
100
AcDbLine
 10
200.000030414478
 20
449.60000380586
 30
0.0
 11
7500.001413941844
 21
449.60000380586
 31
0.0
  0
LINE
  5
78A
330
406
100
AcDbEntity
  8
F-F4PAPAER
  6
DOT
 62
     6
 48
0.5
100
AcDbLine
 10
6496.801510372678
 20
324.799962430387
 30
0.0
 11
200.000030414478
 21
324.799962430387
 31
0.0
  0
TEXT
  5
120A
330
406
100
AcDbEntity
  8
F-F4PAPAER
 62
     6
370
    -3
100
AcDbText
 10
7611.001999999999
 20
726.4679999999998
 30
0.0
 40
56.848
  1
設計
 41
1.042
100
AcDbText
  0
TEXT
  5
120B
330
406
100
AcDbEntity
  8
F-F4PAPAER
 62
     6
370
    -3
100
AcDbText
 10
7611.001999999999
 20
569.6849999999998
 30
0.0
 40
56.848
  1
施工
 41
1.042
100
AcDbText
  0
TEXT
  5
120C
330
406
100
AcDbEntity
  8
F-F4PAPAER
 62
     6
370
    -3
100
AcDbText
 10
8914.0
 20
713.6849999999998
 30
0.0
 40
56.848
  1
殿
 41
1.042
100
AcDbText
  0
TEXT
  5
120D
330
406
100
AcDbEntity
  8
F-F4PAPAER
 62
     6
370
    -3
100
AcDbText
 10
8914.0
 20
561.6849999999998
 30
0.0
 40
56.848
  1
殿
 41
1.042
100
AcDbText
  0
TEXT
  5
120E
330
406
100
AcDbEntity
  8
F-F4PAPAER
 62
     6
370
    -3
100
AcDbText
 10
8368.001000000003
 20
413.6849999999998
 30
0.0
 40
56.848
  1
仕
 41
1.042
100
AcDbText
  0
TEXT
  5
120F
330
406
100
AcDbEntity
  8
F-F4PAPAER
 62
     6
370
    -3
100
AcDbText
 10
8368.001000000003
 20
253.685
 30
0.0
 40
56.848
  1
上
 41
1.042
100
AcDbText
  0
TEXT
  5
1210
330
406
100
AcDbEntity
  8
F-F4PAPAER
 62
     6
370
    -3
100
AcDbText
 10
7528.001
 20
413.6849999999998
 30
0.0
 40
56.848
  1
材
 41
1.042
100
AcDbText
  0
TEXT
  5
1211
330
406
100
AcDbEntity
  8
F-F4PAPAER
 62
     6
370
    -3
100
AcDbText
 10
7528.001
 20
253.685
 30
0.0
 40
56.848
  1
質
 41
1.042
100
AcDbText
  0
TEXT
  5
1212
330
406
100
AcDbEntity
  8
F-F4PAPAER
 62
     6
370
    -3
100
AcDbText
 10
9084.0
 20
695.6849999999998
 30
0.0
 40
56.848
  1
工事名
 41
1.042
100
AcDbText
  0
MTEXT
  5
1213
330
406
100
AcDbEntity
  8
F-F4PAPAER
 62
     6
370
    -3
100
AcDbMText
 10
9102.501000000001
 20
533.0
 30
0.0
 40
48.321
 41
0.0
 71
     7
 72
     1
  1
\W1.179;品{\W0.852; }名
 73
     1
 44
1.0
1001
ACAD
1000
MTEXTBEGIN
1070
    73
1070
     1
1070
    44
1040
1.0
1070
    74
1070
     0
1000
MTEXTEND
  0
MTEXT
  5
1214
330
406
100
AcDbEntity
  8
F-F4PAPAER
 62
     6
370
    -3
100
AcDbMText
 10
9102.501000000001
 20
423.0
 30
0.0
 40
48.321
 41
0.0
 71
     7
 72
     1
  1
\W1.179;図{\W0.852; }名
 73
     1
 44
1.0
1001
ACAD
1000
MTEXTBEGIN
1070
    73
1070
     1
1070
    44
1040
1.0
1070
    74
1070
     0
1000
MTEXTEND
  0
TEXT
  5
1215
330
406
100
AcDbEntity
  8
F-F4PAPAER
 62
     6
370
    -3
100
AcDbText
 10
10306.001
 20
746.6849999999998
 30
0.0
 40
56.848
  1
単位
 41
1.042
100
AcDbText
  0
TEXT
  5
1216
330
406
100
AcDbEntity
  8
F-F4PAPAER
 62
     6
370
    -3
100
AcDbText
 10
10306.001
 20
644.6849999999998
 30
0.0
 40
56.848
  1
ｍｍ
 41
1.042
100
AcDbText
  0
TEXT
  5
1217
330
406
100
AcDbEntity
  8
F-F4PAPAER
 62
     6
370
    -3
100
AcDbText
 10
10546.001
 20
746.6849999999998
 30
0.0
 40
56.848
  1
縮尺
 41
1.042
100
AcDbText
  0
TEXT
  5
1218
330
406
100
AcDbEntity
  8
F-F4PAPAER
 62
     6
370
    -3
100
AcDbText
 10
10377.001
 20
538.6849999999998
 30
0.0
 40
56.848
  1
検　　図
 41
1.042
100
AcDbText
  0
TEXT
  5
1219
330
406
100
AcDbEntity
  8
F-F4PAPAER
 62
     6
370
    -3
100
AcDbText
 10
11347.001
 20
323.685
 30
0.0
 40
56.848
  1
No.
 41
0.8149999999999998
100
AcDbText
  0
MTEXT
  5
121A
330
406
100
AcDbEntity
  8
F-F4PAPAER
 62
     6
370
    -3
100
AcDbMText
 10
10834.001
 20
318.0
 30
0.0
 40
48.321
 41
0.0
 71
     7
 72
     1
  1
\W1.184;個{\W0.852;  }所
 73
     1
 44
1.0
1001
ACAD
1000
MTEXTBEGIN
1070
    73
1070
     1
1070
    44
1040
1.0
1070
    74
1070
     0
1000
MTEXTEND
  0
TEXT
  5
121B
330
406
100
AcDbEntity
  8
F-F4PAPAER
 62
     6
370
    -3
100
AcDbText
 10
10959.393
 20
537.7029999999998
 30
0.0
 40
56.848
  1
製図
 41
1.042
100
AcDbText
  0
TEXT
  5
121C
330
406
100
AcDbEntity
  8
F-F4PAPAER
 62
     6
370
    -3
100
AcDbText
 10
10781.001
 20
538.6849999999998
 30
0.0
 40
56.848
  1
担当
 41
1.042
100
AcDbText
  0
TEXT
  5
121D
330
406
100
AcDbEntity
  8
F-F4PAPAER
 62
     6
370
    -3
100
AcDbText
 10
11189.496
 20
427.9139999999999
 30
0.0
 40
56.848
  1
　年　月　日
 41
1.042
100
AcDbText
  0
TEXT
  5
121E
330
406
100
AcDbEntity
  8
F-F4PAPAER
 62
     6
370
    -3
100
AcDbText
 10
6575.300999999999
 20
236.085
 30
0.0
 40
56.848
  1
FILE
 41
0.6879999999999999
100
AcDbText
  0
MTEXT
  5
121F
330
406
100
AcDbEntity
  8
F-F4PAPAER
 62
     6
370
    -3
100
AcDbMText
 10
11257.102
 20
738.2289999999999
 30
0.0
 40
48.321
 41
0.0
 71
     7
 72
     1
  1
\W1.181;御{\W0.852; }確{\W0.852; }認
 73
     1
 44
1.0
1001
ACAD
1000
MTEXTBEGIN
1070
    73
1070
     1
1070
    44
1040
1.0
1070
    74
1070
     0
1000
MTEXTEND
  0
TEXT
  5
1220
330
406
100
AcDbEntity
  8
F-F4PAPAER
 62
     6
370
    -3
100
AcDbText
 10
10795.559
 20
746.2759999999998
 30
0.0
 40
56.848
  1
作図月日
 41
1.042
100
AcDbText
  0
LINE
  5
1221
330
406
100
AcDbEntity
  8
F-F4PAPAER
  6
Continuous
 62
     5
 48
0.5
100
AcDbLine
 10
10760.00128197393
 20
200.000030414478
 30
0.0
 11
10760.00128197393
 21
823.9999967008017
 31
0.0
  0
LINE
  5
1222
330
406
100
AcDbEntity
  8
F-F4PAPAER
  6
Continuous
 62
     5
 48
0.5
100
AcDbLine
 10
10470.00141394184
 20
823.9999967008017
 30
0.0
 11
10470.00141394184
 21
620.000008984422
 31
0.0
  0
LINE
  5
1223
330
406
100
AcDbEntity
  8
F-F4PAPAER
  6
Continuous
 62
     5
 48
0.5
100
AcDbLine
 10
10280.0013314619
 20
510.0000786505149
 30
0.0
 11
9020.000673978945
 21
510.0000786505149
 31
0.0
  0
LINE
  5
1224
330
406
100
AcDbEntity
  8
F-F4PAPAER
  6
Continuous
 62
     5
 48
0.5
100
AcDbLine
 10
9020.000673978945
 20
520.000048456965
 30
0.0
 11
7500.001413941844
 21
520.000048456965
 31
0.0
  0
LINE
  5
1225
330
406
100
AcDbEntity
  8
F-F4PAPAER
  6
Continuous
 62
     5
 48
0.5
100
AcDbLine
 10
7620.000176742729
 20
520.000048456965
 30
0.0
 11
7620.000176742729
 21
200.000030414478
 31
0.0
  0
LINE
  5
1226
330
406
100
AcDbEntity
  8
F-F4PAPAER
  6
Continuous
 62
     5
 48
0.5
100
AcDbLine
 10
7500.001413941844
 20
200.000030414478
 30
0.0
 11
7500.001413941844
 21
823.9999967008017
 31
0.0
  0
LINE
  5
1227
330
406
100
AcDbEntity
  8
F-F4PAPAER
  6
Continuous
 62
     5
 48
0.5
100
AcDbLine
 10
7500.001413941844
 20
671.999956963145
 30
0.0
 11
9020.000673978945
 21
671.999956963145
 31
0.0
  0
LINE
  5
1228
330
406
100
AcDbEntity
  8
F-F4PAPAER
  6
Continuous
 62
     5
 48
0.5
100
AcDbLine
 10
9020.000673978945
 20
620.000008984422
 30
0.0
 11
11120.00106988266
 21
620.000008984422
 31
0.0
  0
LINE
  5
1229
330
406
100
AcDbEntity
  8
F-F4PAPAER
  6
Continuous
 62
     5
 48
0.5
100
AcDbLine
 10
10939.99977612587
 20
620.000008984422
 30
0.0
 11
10939.99977612587
 21
400.0000608289568
 31
0.0
  0
LINE
  5
122A
330
406
100
AcDbEntity
  8
F-F4PAPAER
  6
Continuous
 62
     5
 48
0.5
100
AcDbLine
 10
11120.00106988266
 20
200.000030414478
 30
0.0
 11
11120.00106988266
 21
823.9999967008017
 31
0.0
  0
LINE
  5
122B
330
406
100
AcDbEntity
  8
F-F4PAPAER
  6
Continuous
 62
     5
 48
0.5
100
AcDbLine
 10
11669.9995404689
 20
823.9999967008017
 30
0.0
 11
210.000043964755
 21
823.9999967008017
 31
0.0
  0
LINE
  5
122C
330
406
100
AcDbEntity
  8
F-F4PAPAER
  6
Continuous
 62
     5
 48
0.5
100
AcDbLine
 10
210.000043964755
 20
824.9999805583
 30
0.0
 11
11669.9995404689
 21
824.9999805583
 31
0.0
  0
LINE
  5
122D
330
406
100
AcDbEntity
  8
F-F4PAPAER
  6
Continuous
 62
     5
 48
0.5
100
AcDbLine
 10
11669.9995404689
 20
825.999964415797
 30
0.0
 11
210.000043964755
 21
825.999964415797
 31
0.0
  0
LINE
  5
122E
330
406
100
AcDbEntity
  8
F-F4PAPAER
  6
Continuous
 62
     5
 48
0.5
100
AcDbLine
 10
210.000043964755
 20
827.0000357609459
 30
0.0
 11
11669.9995404689
 21
827.0000357609459
 31
0.0
  0
LINE
  5
122F
330
406
100
AcDbEntity
  8
F-F4PAPAER
  6
Continuous
 62
     5
 48
0.5
100
AcDbLine
 10
11669.9995404689
 20
828.0000196184428
 30
0.0
 11
210.000043964755
 21
828.0000196184428
 31
0.0
  0
LINE
  5
1230
330
406
100
AcDbEntity
  8
F-F4PAPAER
  6
Continuous
 62
     5
 48
0.5
100
AcDbLine
 10
210.000043964755
 20
829.0000034759399
 30
0.0
 11
11669.9995404689
 21
829.0000034759399
 31
0.0
  0
LINE
  5
1231
330
406
100
AcDbEntity
  8
F-F4PAPAER
  6
Continuous
 62
     5
 48
0.5
100
AcDbLine
 10
11669.9995404689
 20
829.999987333438
 30
0.0
 11
210.000043964755
 21
829.999987333438
 31
0.0
  0
LINE
  5
1232
330
406
100
AcDbEntity
  8
F-F4PAPAER
  6
Continuous
 62
     5
 48
0.5
100
AcDbLine
 10
210.000043964755
 20
830.999971190935
 30
0.0
 11
11669.9995404689
 21
830.999971190935
 31
0.0
  0
LINE
  5
1233
330
406
100
AcDbEntity
  8
F-F4PAPAER
  6
Continuous
 62
     5
 48
0.5
100
AcDbLine
 10
11669.9995404689
 20
831.999955048432
 30
0.0
 11
210.000043964755
 21
831.999955048432
 31
0.0
  0
LINE
  5
1234
330
406
100
AcDbEntity
  8
F-F4PAPAER
  6
Continuous
 62
     5
 48
0.5
100
AcDbLine
 10
210.000043964755
 20
832.999938905929
 30
0.0
 11
11669.9995404689
 21
832.999938905929
 31
0.0
  0
LINE
  5
1235
330
406
100
AcDbEntity
  8
F-F4PAPAER
  6
Continuous
 62
     5
 48
0.5
100
AcDbLine
 10
11669.9995404689
 20
834.000010251078
 30
0.0
 11
210.000043964755
 21
834.000010251078
 31
0.0
  0
LWPOLYLINE
  5
1236
330
406
100
AcDbEntity
  8
F-F4PAPAER
  6
Continuous
 62
     5
100
AcDbPolyline
 90
        5
 70
     0
 43
0.0
 10
210.000043964755
 20
210.000022092841
 10
210.000043964755
 20
8229.999778482444
 10
11669.9995404689
 20
8229.999778482444
 10
11669.9995404689
 20
210.000022092841
 10
210.000043964755
 20
210.000022092841
  0
LWPOLYLINE
  5
123D
330
406
100
AcDbEntity
  8
F-F4PAPAER
  6
Continuous
 62
     5
100
AcDbPolyline
 90
        5
 70
     0
 43
0.0
 10
209.000038235344
 20
209.000038235344
 10
11670.9996993017
 20
209.000038235344
 10
11670.9996993017
 20
8230.999937315246
 10
209.000038235344
 20
8230.999937315246
 10
209.000038235344
 20
209.000038235344
  0
LWPOLYLINE
  5
1244
330
406
100
AcDbEntity
  8
F-F4PAPAER
  6
Continuous
 62
     5
100
AcDbPolyline
 90
        5
 70
     0
 43
0.0
 10
208.000032505934
 20
208.000032505934
 10
11671.99915823329
 20
208.000032505934
 10
11671.99915823329
 20
8232.000096148043
 10
208.000032505934
 20
8232.000096148043
 10
208.000032505934
 20
208.000032505934
  0
LWPOLYLINE
  5
124B
330
406
100
AcDbEntity
  8
F-F4PAPAER
  6
Continuous
 62
     5
100
AcDbPolyline
 90
        5
 70
     0
 43
0.0
 10
207.000026776524
 20
207.000026776524
 10
11673.0000169673
 20
207.000026776524
 10
11673.0000169673
 20
8233.000254980845
 10
207.000026776524
 20
8233.000254980845
 10
207.000026776524
 20
207.000026776524
  0
LWPOLYLINE
  5
1252
330
406
100
AcDbEntity
  8
F-F4PAPAER
  6
Continuous
 62
     5
100
AcDbPolyline
 90
        5
 70
     0
 43
0.0
 10
206.000021047113
 20
206.000021047113
 10
206.000021047113
 20
8233.999713912433
 10
11673.99877599768
 20
8233.999713912433
 10
11673.99877599768
 20
206.000021047113
 10
206.000021047113
 20
206.000021047113
  0
LWPOLYLINE
  5
1259
330
406
100
AcDbEntity
  8
F-F4PAPAER
  6
Continuous
 62
     5
100
AcDbPolyline
 90
        5
 70
     0
 43
0.0
 10
205.000037189616
 20
205.000037189616
 10
11674.99963473169
 20
205.000037189616
 10
11674.99963473169
 20
8234.999872745232
 10
205.000037189616
 20
8234.999872745232
 10
205.000037189616
 20
205.000037189616
  0
LWPOLYLINE
  5
1260
330
406
100
AcDbEntity
  8
F-F4PAPAER
  6
Continuous
 62
     5
100
AcDbPolyline
 90
        5
 70
     0
 43
0.0
 10
204.000031460206
 20
204.000031460206
 10
204.000031460206
 20
8235.99933167682
 10
11675.99979356449
 20
8235.99933167682
 10
11675.99979356449
 20
204.000031460206
 10
204.000031460206
 20
204.000031460206
  0
LWPOLYLINE
  5
1267
330
406
100
AcDbEntity
  8
F-F4PAPAER
  6
Continuous
 62
     5
100
AcDbPolyline
 90
        5
 70
     0
 43
0.0
 10
203.000025730797
 20
203.000025730796
 10
11676.99925249608
 20
203.000025730796
 10
11676.99925249608
 20
8237.000190410837
 10
203.000025730797
 20
8237.000190410837
 10
203.000025730797
 20
203.000025730796
  0
LWPOLYLINE
  5
126E
330
406
100
AcDbEntity
  8
F-F4PAPAER
  6
Continuous
 62
     5
100
AcDbPolyline
 90
        5
 70
     0
 43
0.0
 10
202.000020001386
 20
202.000020001386
 10
202.000020001386
 20
8237.999649342423
 10
11677.99941132888
 20
8237.999649342423
 10
11677.99941132888
 20
202.000020001386
 10
202.000020001386
 20
202.000020001386
  0
LWPOLYLINE
  5
1275
330
406
100
AcDbEntity
  8
F-F4PAPAER
  6
Continuous
 62
     5
100
AcDbPolyline
 90
        5
 70
     0
 43
0.0
 10
201.000036143888
 20
201.000036143888
 10
11678.99887026046
 20
201.000036143888
 10
11678.99887026046
 20
8238.999808175224
 10
201.000036143888
 20
8238.999808175224
 10
201.000036143888
 20
201.000036143888
  0
LWPOLYLINE
  5
127C
330
406
100
AcDbEntity
  8
F-F4PAPAER
  6
Continuous
 62
     5
100
AcDbPolyline
 90
        5
 70
     0
 43
0.0
 10
200.000030414478
 20
200.000030414478
 10
11679.99972899448
 20
200.000030414478
 10
11679.99972899448
 20
8239.999967008023
 10
200.000030414478
 20
8239.999967008023
 10
200.000030414478
 20
200.000030414478
  0
LINE
  5
1283
330
406
100
AcDbEntity
  8
F-E_J_ADD
  6
HIDDEN
 62
     5
100
AcDbLine
 10
0.0
 20
0.0
 30
0.0
 11
11880.0
 21
0.0
 31
0.0
  0
LINE
  5
1284
330
406
100
AcDbEntity
  8
F-E_J_ADD
  6
HIDDEN
 62
     5
100
AcDbLine
 10
11880.0
 20
0.0
 30
0.0
 11
11880.0
 21
8400.000183812439
 31
0.0
  0
LINE
  5
1285
330
406
100
AcDbEntity
  8
F-E_J_ADD
  6
HIDDEN
 62
     5
100
AcDbLine
 10
11880.0
 20
8400.000183812439
 30
0.0
 11
0.0
 21
8400.000183812439
 31
0.0
  0
LINE
  5
1286
330
406
100
AcDbEntity
  8
F-E_J_ADD
  6
HIDDEN
 62
     5
100
AcDbLine
 10
0.0
 20
8400.000183812439
 30
0.0
 11
0.0
 21
0.0
 31
0.0
  0
LWPOLYLINE
  5
1287
330
406
100
AcDbEntity
  8
F-F4PAPAER
  6
Continuous
 62
     5
100
AcDbPolyline
 90
        3
 70
     0
 43
0.0
 10
6496.801510372678
 20
200.000030414478
 10
6496.801510372678
 20
324.799962430387
 10
7500.001413941844
 20
324.799962430387
  0
LINE
  5
128C
330
406
100
AcDbEntity
  8
F-F4PAPAER
  6
Continuous
 62
     5
 48
0.5
100
AcDbLine
 10
7860.001201850566
 20
520.000048456965
 30
0.0
 11
7860.001201850566
 21
823.9999967008017
 31
0.0
  0
LINE
  5
128D
330
406
100
AcDbEntity
  8
F-F4PAPAER
  6
Continuous
 62
     5
 48
0.5
100
AcDbLine
 10
8340.00045246139
 20
520.000048456965
 30
0.0
 11
8340.00045246139
 21
200.000030414478
 31
0.0
  0
LINE
  5
128E
330
406
100
AcDbEntity
  8
F-F4PAPAER
  6
Continuous
 62
     5
 48
0.5
100
AcDbLine
 10
8459.999915163489
 20
200.000030414478
 30
0.0
 11
8459.999915163489
 21
520.000048456965
 31
0.0
  0
LINE
  5
128F
330
406
100
AcDbEntity
  8
F-F4PAPAER
  6
Continuous
 62
     5
 48
0.5
100
AcDbLine
 10
9020.000673978945
 20
400.0000608289568
 30
0.0
 11
11679.99972899448
 21
400.0000608289568
 31
0.0
  0
LINE
  5
1290
330
406
100
AcDbEntity
  8
F-F4PAPAER
  6
Continuous
 62
     5
 48
0.5
100
AcDbLine
 10
10280.0013314619
 20
400.0000608289568
 30
0.0
 11
10280.0013314619
 21
823.9999967008017
 31
0.0
  0
LINE
  5
1291
330
406
100
AcDbEntity
  8
F-F4PAPAER
  6
Continuous
 62
     5
 48
0.5
100
AcDbLine
 10
9360.000784737724
 20
823.9999967008017
 30
0.0
 11
9360.000784737724
 21
400.0000608289568
 31
0.0
  0
LINE
  5
1292
330
406
100
AcDbEntity
  8
F-F4PAPAER
  6
Continuous
 62
     5
 48
0.5
100
AcDbLine
 10
9020.000673978945
 20
200.000030414478
 30
0.0
 11
9020.000673978945
 21
823.9999967008017
 31
0.0
  0
LINE
  5
1293
330
406
100
AcDbEntity
  8
F-F4PAPAER
  6
Continuous
 62
     5
 48
0.5
100
AcDbLine
 10
6796.801566930351
 20
324.799962430387
 30
0.0
 11
6796.801566930351
 21
200.000030414478
 31
0.0
  0
TEXT
  5
1294
330
406
100
AcDbEntity
  8
0-F1TEXT
 62
     3
370
    -3
100
AcDbText
 10
11319.93906666666
 20
219.096
 30
0.0
 40
71.06
  1
１／１
 41
0.6760000000000001
 72
     1
 11
11400.0
 21
219.096
 31
0.0
100
AcDbText
 73
     1
  0
TEXT
  5
1295
330
406
100
AcDbEntity
  8
0-F1TEXT
 62
     3
370
    -3
100
AcDbText
 10
9592.627949333333
 20
525.0
 30
0.0
 40
71.06
  1
ＣＣＧ２Ｌ３０型
 41
0.6760000000000001
 72
     1
 11
9820.001000000001
 21
525.0
 31
0.0
100
AcDbText
 73
     1
  0
TEXT
  5
1296
330
406
100
AcDbEntity
  8
0-F1TEXT
 62
     3
370
    -3
100
AcDbText
 10
6928.465386666667
 20
222.4
 30
0.0
 40
71.06
  1
ＣＣＧ２Ｌ－ＰＬ
 41
0.6760000000000001
 72
     1
 11
7152.636000000001
 21
222.4
 31
0.0
100
AcDbText
 73
     1
  0
INSERT
  5
1297
330
406
100
AcDbEntity
  8
2-53DIM
 62
     7
100
AcDbBlockReference
  2
CCG-L30-T_1
 10
3160.744054787393
 20
6021.269299250255
 30
0.0
 41
2.5
 42
2.5
 50
180.0
  0
INSERT
  5
1298
330
406
100
AcDbEntity
  8
2-53DIM
 62
     7
100
AcDbBlockReference
  2
LAT-R_0
 10
3160.744054787393
 20
6021.269299250255
 30
0.0
 41
2.5
 42
2.5
 50
180.0
  0
INSERT
  5
1299
330
406
100
AcDbEntity
  8
2-53DIM
 62
     7
100
AcDbBlockReference
  2
CCG-L30-T_1
 10
3460.744054787393
 20
6021.269299250255
 30
0.0
 41
2.5
 42
2.5
 50
180.0
  0
LINE
  5
129A
330
406
100
AcDbEntity
  8
2-53DIM
  6
Continuous
 62
     7
 48
0.5
100
AcDbLine
 10
3607.443306902816
 20
5871.269299183616
 30
0.0
 11
3710.744054902817
 21
5871.269299183616
 31
0.0
  0
ARC
  5
129B
330
406
100
AcDbEntity
  8
2-53DIM
  6
Continuous
 62
     7
100
AcDbCircle
 10
3631.994054902812
 20
6096.269299183615
 30
0.0
 40
108.750000000004
100
AcDbArc
 50
316.397181027298
 51
403.602818972703
  0
ARC
  5
129C
330
406
100
AcDbEntity
  8
2-53DIM
  6
Continuous
 62
     7
100
AcDbCircle
 10
3789.494054902821
 20
5946.269299183612
 30
0.0
 40
108.750000000004
100
AcDbArc
 50
136.397181027298
 51
223.602818972703
  0
LINE
  5
129D
330
406
100
AcDbEntity
  8
2-53DIM
  6
Continuous
 62
     7
 48
0.5
100
AcDbLine
 10
3593.725887902817
 20
5895.029299183614
 30
0.0
 11
3693.572081924774
 21
5895.029299183614
 31
0.0
  0
LINE
  5
129E
330
406
100
AcDbEntity
  8
2-53DIM
  6
Continuous
 62
     7
 48
0.5
100
AcDbLine
 10
3560.744054902817
 20
6147.509299183615
 30
0.0
 11
3727.916027880858
 21
6147.509299183615
 31
0.0
  0
LINE
  5
129F
330
406
100
AcDbEntity
  8
2-53DIM
  6
Continuous
 62
     7
 48
0.5
100
AcDbLine
 10
3559.244054902817
 20
6171.269299183617
 30
0.0
 11
3710.744054902817
 21
6171.269299183617
 31
0.0
  0
LINE
  5
12A0
330
406
100
AcDbEntity
  8
2-53DIM
  6
Continuous
 62
     7
 48
0.5
100
AcDbLine
 10
2450.744054787393
 20
4967.269299183616
 30
0.0
 11
2450.744054787393
 21
6691.269299183615
 31
0.0
  0
LWPOLYLINE
  5
12A1
330
406
100
AcDbEntity
  8
2-53DIM
  6
Continuous
 62
     3
100
AcDbPolyline
 90
        2
 70
     1
 43
8.0
 10
2096.744000000001
 20
6691.269
 42
1.0
 10
2104.744
 20
6691.269
 42
1.0
  0
LWPOLYLINE
  5
12A5
330
406
100
AcDbEntity
  8
2-53DIM
  6
Continuous
 62
     3
100
AcDbPolyline
 90
        2
 70
     1
 43
8.0
 10
2096.744000000001
 20
6656.269
 42
1.0
 10
2104.744
 20
6656.269
 42
1.0
  0
LINE
  5
12A9
330
406
100
AcDbEntity
  8
2-53DIM
  6
Continuous
 62
     3
 48
0.5
100
AcDbLine
 10
2080.744054787393
 20
6691.269299183615
 30
0.0
 11
2430.744054787393
 21
6691.269299183615
 31
0.0
  0
LINE
  5
12AA
330
406
100
AcDbEntity
  8
2-53DIM
  6
Continuous
 62
     3
 48
0.5
100
AcDbLine
 10
2080.744054787393
 20
6656.269299183617
 30
0.0
 11
2460.744054787393
 21
6656.269299183617
 31
0.0
  0
LWPOLYLINE
  5
12AB
330
406
100
AcDbEntity
  8
2-53DIM
  6
Continuous
 62
     3
100
AcDbPolyline
 90
        2
 70
     1
 43
8.0
 10
2096.744000000001
 20
5167.269000000001
 42
1.0
 10
2104.744
 20
5167.269000000001
 42
1.0
  0
LINE
  5
12AF
330
406
100
AcDbEntity
  8
2-53DIM
  6
Continuous
 62
     3
 48
0.5
100
AcDbLine
 10
2080.744054787393
 20
5167.269299183615
 30
0.0
 11
3541.425659229388
 21
5167.269299183615
 31
0.0
  0
LINE
  5
12B0
330
406
100
AcDbEntity
  8
2-53DIM
  6
Continuous
 62
     3
 48
0.5
100
AcDbLine
 10
2100.744054787393
 20
6656.269299183617
 30
0.0
 11
2100.744054787393
 21
5167.269299183615
 31
0.0
  0
TEXT
  5
12B1
330
406
100
AcDbEntity
  8
2-53DIM
 62
     3
370
    -3
100
AcDbText
 10
2080.744000000001
 20
5832.7467
 30
0.0
 40
71.06
  1
1489
 50
90.0
 41
0.7530000000000002
 72
     1
 11
2080.744000000001
 21
5921.927
 31
0.0
100
AcDbText
 73
     1
  0
LWPOLYLINE
  5
12B2
330
406
100
AcDbEntity
  8
2-53DIM
  6
Continuous
 62
     3
100
AcDbPolyline
 90
        2
 70
     1
 43
8.0
 10
1956.744
 20
6691.269
 42
1.0
 10
1964.744
 20
6691.269
 42
1.0
  0
LWPOLYLINE
  5
12B6
330
406
100
AcDbEntity
  8
2-53DIM
  6
Continuous
 62
     3
100
AcDbPolyline
 90
        2
 70
     1
 43
8.0
 10
1956.744
 20
5167.269000000001
 42
1.0
 10
1964.744
 20
5167.269000000001
 42
1.0
  0
LINE
  5
12BA
330
406
100
AcDbEntity
  8
2-53DIM
  6
Continuous
 62
     3
 48
0.5
100
AcDbLine
 10
1940.744054787393
 20
6691.269299183615
 30
0.0
 11
2430.744054787393
 21
6691.269299183615
 31
0.0
  0
LINE
  5
12BB
330
406
100
AcDbEntity
  8
2-53DIM
  6
Continuous
 62
     3
 48
0.5
100
AcDbLine
 10
1940.744054787393
 20
5167.269299183615
 30
0.0
 11
3541.425659229388
 21
5167.269299183615
 31
0.0
  0
LINE
  5
12BC
330
406
100
AcDbEntity
  8
2-53DIM
  6
Continuous
 62
     3
 48
0.5
100
AcDbLine
 10
1960.744054787393
 20
6691.269299183615
 30
0.0
 11
1960.744054787393
 21
5167.269299183615
 31
0.0
  0
TEXT
  5
12BD
330
406
100
AcDbEntity
  8
2-53DIM
 62
     3
370
    -3
100
AcDbText
 10
1940.744
 20
5854.036566666667
 30
0.0
 40
71.06
  1
1524
 50
90.0
 41
0.721
 72
     1
 11
1940.744
 21
5939.427
 31
0.0
100
AcDbText
 73
     1
  0
LINE
  5
12BE
330
406
100
AcDbEntity
  8
2-53DIM
  6
Continuous
 62
     3
 48
0.5
100
AcDbLine
 10
2100.744054787393
 20
6691.269299183615
 30
0.0
 11
2100.744054787393
 21
6656.269299183617
 31
0.0
  0
TEXT
  5
12BF
330
406
100
AcDbEntity
  8
2-53DIM
 62
     3
370
    -3
100
AcDbText
 10
2080.744000000001
 20
6724.001866666665
 30
0.0
 40
71.06
  1
35
 50
90.0
 41
0.6560000000000002
 72
     1
 11
2080.744000000001
 21
6762.847999999999
 31
0.0
100
AcDbText
 73
     1
  0
LWPOLYLINE
  5
12C0
330
406
100
AcDbEntity
  8
2-53DIM
  6
Continuous
 62
     3
100
AcDbPolyline
 90
        2
 70
     1
 43
8.0
 10
2446.744000000001
 20
7041.268999999998
 42
1.0
 10
2454.744
 20
7041.268999999998
 42
1.0
  0
LWPOLYLINE
  5
12C4
330
406
100
AcDbEntity
  8
2-53DIM
  6
Continuous
 62
     3
100
AcDbPolyline
 90
        2
 70
     1
 43
8.0
 10
2476.744
 20
7041.268999999998
 42
1.0
 10
2484.744
 20
7041.268999999998
 42
1.0
  0
LINE
  5
12C8
330
406
100
AcDbEntity
  8
2-53DIM
  6
Continuous
 62
     3
 48
0.5
100
AcDbLine
 10
2450.744054787393
 20
7061.269299183615
 30
0.0
 11
2450.744054787393
 21
6711.269299183617
 31
0.0
  0
LINE
  5
12C9
330
406
100
AcDbEntity
  8
2-53DIM
  6
Continuous
 62
     3
 48
0.5
100
AcDbLine
 10
2480.744054787393
 20
7061.269299183615
 30
0.0
 11
2480.744054787393
 21
6676.269299183616
 31
0.0
  0
LWPOLYLINE
  5
12CA
330
406
100
AcDbEntity
  8
2-53DIM
  6
Continuous
 62
     3
100
AcDbPolyline
 90
        2
 70
     1
 43
8.0
 10
2476.744
 20
7041.268999999998
 42
1.0
 10
2484.744
 20
7041.268999999998
 42
1.0
  0
LWPOLYLINE
  5
12CE
330
406
100
AcDbEntity
  8
2-53DIM
  6
Continuous
 62
     3
100
AcDbPolyline
 90
        2
 70
     1
 43
8.0
 10
3156.744
 20
7041.268999999998
 42
1.0
 10
3164.744000000001
 20
7041.268999999998
 42
1.0
  0
LINE
  5
12D2
330
406
100
AcDbEntity
  8
2-53DIM
  6
Continuous
 62
     3
 48
0.5
100
AcDbLine
 10
3160.744054787393
 20
7061.269299183615
 30
0.0
 11
3160.744054787393
 21
6255.404180183615
 31
0.0
  0
LINE
  5
12D3
330
406
100
AcDbEntity
  8
2-53DIM
  6
Continuous
 62
     3
 48
0.5
100
AcDbLine
 10
2480.744054787393
 20
7041.269299183615
 30
0.0
 11
3160.744054787393
 21
7041.269299183615
 31
0.0
  0
TEXT
  5
12D4
330
406
100
AcDbEntity
  8
2-53DIM
 62
     3
370
    -3
100
AcDbText
 10
2768.322750000001
 20
7061.269
 30
0.0
 40
71.06
  1
680
 41
0.69
 72
     1
 11
2829.612
 21
7061.269
 31
0.0
100
AcDbText
 73
     1
  0
LWPOLYLINE
  5
12D5
330
406
100
AcDbEntity
  8
2-53DIM
  6
Continuous
 62
     3
100
AcDbPolyline
 90
        2
 70
     1
 43
8.0
 10
2446.744000000001
 20
7181.269
 42
1.0
 10
2454.744
 20
7181.269
 42
1.0
  0
LWPOLYLINE
  5
12D9
330
406
100
AcDbEntity
  8
2-53DIM
  6
Continuous
 62
     3
100
AcDbPolyline
 90
        2
 70
     1
 43
8.0
 10
3156.744
 20
7181.269
 42
1.0
 10
3164.744000000001
 20
7181.269
 42
1.0
  0
LINE
  5
12DD
330
406
100
AcDbEntity
  8
2-53DIM
  6
Continuous
 62
     3
 48
0.5
100
AcDbLine
 10
2450.744054787393
 20
7201.269299183616
 30
0.0
 11
2450.744054787393
 21
6711.269299183617
 31
0.0
  0
LINE
  5
12DE
330
406
100
AcDbEntity
  8
2-53DIM
  6
Continuous
 62
     3
 48
0.5
100
AcDbLine
 10
3160.744054787393
 20
7201.269299183616
 30
0.0
 11
3160.744054787393
 21
6255.404180183615
 31
0.0
  0
LINE
  5
12DF
330
406
100
AcDbEntity
  8
2-53DIM
  6
Continuous
 62
     3
 48
0.5
100
AcDbLine
 10
2450.744054787393
 20
7181.269299183616
 30
0.0
 11
3160.744054787393
 21
7181.269299183616
 31
0.0
  0
TEXT
  5
12E0
330
406
100
AcDbEntity
  8
2-53DIM
 62
     3
370
    -3
100
AcDbText
 10
2749.9474
 20
7201.269
 30
0.0
 40
71.06
  1
710
 41
0.84
 72
     1
 11
2814.612
 21
7201.269
 31
0.0
100
AcDbText
 73
     1
  0
LINE
  5
12E1
330
406
100
AcDbEntity
  8
2-53DIM
  6
Continuous
 62
     3
 48
0.5
100
AcDbLine
 10
2450.744054787393
 20
7041.269299183615
 30
0.0
 11
2480.744054787393
 21
7041.269299183615
 31
0.0
  0
TEXT
  5
12E2
330
406
100
AcDbEntity
  8
2-53DIM
 62
     3
370
    -3
100
AcDbText
 10
2355.41765
 20
7061.269
 30
0.0
 40
71.06
  1
30
 41
0.73
 72
     1
 11
2394.323
 21
7061.269
 31
0.0
100
AcDbText
 73
     1
  0
LWPOLYLINE
  5
12E3
330
406
100
AcDbEntity
  8
2-53DIM
  6
Continuous
 62
     3
100
AcDbPolyline
 90
        2
 70
     1
 43
8.0
 10
2446.744000000001
 20
4827.269000000001
 42
1.0
 10
2454.744
 20
4827.269000000001
 42
1.0
  0
LWPOLYLINE
  5
12E7
330
406
100
AcDbEntity
  8
2-53DIM
  6
Continuous
 62
     3
100
AcDbPolyline
 90
        2
 70
     1
 43
8.0
 10
3056.744
 20
4827.269000000001
 42
1.0
 10
3064.744000000001
 20
4827.269000000001
 42
1.0
  0
LINE
  5
12EB
330
406
100
AcDbEntity
  8
2-53DIM
  6
Continuous
 62
     3
 48
0.5
100
AcDbLine
 10
2450.744054787393
 20
4807.269299183616
 30
0.0
 11
2450.744054787393
 21
4947.269299183616
 31
0.0
  0
LINE
  5
12EC
330
406
100
AcDbEntity
  8
2-53DIM
  6
Continuous
 62
     3
 48
0.5
100
AcDbLine
 10
3060.744054787393
 20
4807.269299183616
 30
0.0
 11
3060.744054787393
 21
5854.969299183617
 31
0.0
  0
LINE
  5
12ED
330
406
100
AcDbEntity
  8
2-53DIM
  6
Continuous
 62
     3
 48
0.5
100
AcDbLine
 10
2450.744054787393
 20
4827.269299183615
 30
0.0
 11
3060.744054787393
 21
4827.269299183615
 31
0.0
  0
TEXT
  5
12EE
330
406
100
AcDbEntity
  8
2-53DIM
 62
     3
370
    -3
100
AcDbText
 10
2701.79496
 20
4847.269
 30
0.0
 40
71.06
  1
610
 41
0.816
 72
     1
 11
2764.612
 21
4847.269
 31
0.0
100
AcDbText
 73
     1
  0
LWPOLYLINE
  5
12EF
330
406
100
AcDbEntity
  8
2-53DIM
  6
Continuous
 62
     3
100
AcDbPolyline
 90
        2
 70
     1
 43
8.0
 10
3156.744
 20
4827.269000000001
 42
1.0
 10
3164.744000000001
 20
4827.269000000001
 42
1.0
  0
LINE
  5
12F3
330
406
100
AcDbEntity
  8
2-53DIM
  6
Continuous
 62
     3
 48
0.5
100
AcDbLine
 10
3160.744054787393
 20
4807.269299183616
 30
0.0
 11
3160.744054787393
 21
5787.134418183615
 31
0.0
  0
LINE
  5
12F4
330
406
100
AcDbEntity
  8
2-53DIM
  6
Continuous
 62
     3
 48
0.5
100
AcDbLine
 10
3060.744054787393
 20
4827.269299183615
 30
0.0
 11
3160.744054787393
 21
4827.269299183615
 31
0.0
  0
TEXT
  5
12F5
330
406
100
AcDbEntity
  8
2-53DIM
 62
     3
370
    -3
100
AcDbText
 10
3195.01072
 20
4847.269
 30
0.0
 40
71.06
  1
100
 41
0.888
 72
     1
 11
3258.112
 21
4847.269
 31
0.0
100
AcDbText
 73
     1
  0
INSERT
  5
12F6
330
406
100
AcDbEntity
  8
2-53DIM
 62
     7
100
AcDbBlockReference
  2
LAT-R_0
 10
4310.744054787392
 20
6021.269299250255
 30
0.0
 41
2.5
 42
2.5
 50
180.0
  0
INSERT
  5
12F7
330
406
100
AcDbEntity
  8
2-53DIM
 62
     7
100
AcDbBlockReference
  2
CCG-L30-T_1
 10
4310.744054787392
 20
6021.269299250255
 30
0.0
 41
2.5
 42
2.5
 50
180.0
  0
LINE
  5
12F8
330
406
100
AcDbEntity
  8
2-53DIM
  6
Continuous
 62
     7
 48
0.5
100
AcDbLine
 10
4060.744054787392
 20
6171.269299183617
 30
0.0
 11
4164.043232787393
 21
6171.269299183617
 31
0.0
  0
ARC
  5
12F9
330
406
100
AcDbEntity
  8
2-53DIM
  6
Continuous
 62
     7
100
AcDbCircle
 10
3981.994054787389
 20
6096.269299183615
 30
0.0
 40
108.750000000004
100
AcDbArc
 50
316.397181027298
 51
403.602818972703
  0
ARC
  5
12FA
330
406
100
AcDbEntity
  8
2-53DIM
  6
Continuous
 62
     7
100
AcDbCircle
 10
4139.494054787398
 20
5946.269299183612
 30
0.0
 40
108.750000000004
100
AcDbArc
 50
136.397181027298
 51
223.602818972703
  0
LINE
  5
12FB
330
406
100
AcDbEntity
  8
2-53DIM
  6
Continuous
 62
     7
 48
0.5
100
AcDbLine
 10
4077.916027765434
 20
6147.509299183615
 30
0.0
 11
4177.761075787393
 21
6147.509299183615
 31
0.0
  0
LINE
  5
12FC
330
406
100
AcDbEntity
  8
2-53DIM
  6
Continuous
 62
     7
 48
0.5
100
AcDbLine
 10
4060.744054787392
 20
5871.269299183616
 30
0.0
 11
4212.244054787392
 21
5871.269299183616
 31
0.0
  0
LINE
  5
12FD
330
406
100
AcDbEntity
  8
2-53DIM
  6
Continuous
 62
     7
 48
0.5
100
AcDbLine
 10
4043.57208180935
 20
5895.029299183614
 30
0.0
 11
4210.744054787392
 21
5895.029299183614
 31
0.0
  0
LWPOLYLINE
  5
12FE
330
406
100
AcDbEntity
  8
2-53DIM
  6
Continuous
 62
     3
100
AcDbPolyline
 90
        2
 70
     1
 43
8.0
 10
3525.627
 20
6534.227
 42
1.0
 10
3533.627
 20
6534.227
 42
1.0
  0
LWPOLYLINE
  5
1302
330
406
100
AcDbEntity
  8
2-53DIM
  6
Continuous
 62
     3
100
AcDbPolyline
 90
        2
 70
     1
 43
8.0
 10
4268.105999999998
 20
5248.167000000002
 42
1.0
 10
4276.106
 20
5248.167000000002
 42
1.0
  0
LINE
  5
1306
330
406
100
AcDbEntity
  8
2-53DIM
  6
Continuous
 62
     3
 48
0.5
100
AcDbLine
 10
3512.306748963805
 20
6524.227399479091
 30
0.0
 11
3684.164040838533
 21
6623.445478940936
 31
0.0
  0
LWPOLYLINE
  5
1307
330
406
100
AcDbEntity
  8
2-53DIM
  6
Continuous
 62
     3
100
AcDbPolyline
 90
        2
 70
     1
 43
8.0
 10
3525.627
 20
6534.227
 42
1.0
 10
3533.627
 20
6534.227
 42
1.0
  0
LWPOLYLINE
  5
130B
330
406
100
AcDbEntity
  8
2-53DIM
  6
Continuous
 62
     3
100
AcDbPolyline
 90
        2
 70
     1
 43
8.0
 10
4268.105999999998
 20
5248.167000000002
 42
1.0
 10
4276.106
 20
5248.167000000002
 42
1.0
  0
LINE
  5
130F
330
406
100
AcDbEntity
  8
2-53DIM
  6
Continuous
 62
     3
 48
0.5
100
AcDbLine
 10
3529.627421750848
 20
6534.227114185232
 30
0.0
 11
4272.106238681852
 21
5248.16715974736
 31
0.0
  0
TEXT
  5
1310
330
406
100
AcDbEntity
  8
2-53DIM
 62
     3
370
    -3
100
AcDbText
 10
3879.743065744245
 20
5967.786971991314
 30
0.0
 40
71.06
  1
1485
 50
-60.001
 41
0.735
 72
     1
 11
3923.266
 21
5892.4
 31
0.0
100
AcDbText
 73
     1
  0
LINE
  5
1311
330
406
100
AcDbEntity
  8
2-53DIM
  6
Continuous
 62
     3
 48
0.5
100
AcDbLine
 10
4254.785565894811
 20
5238.16744504122
 30
0.0
 11
4545.95808806575
 21
5406.269584477474
 31
0.0
  0
INSERT
  5
1312
330
406
100
AcDbEntity
  8
2-53DIM
 62
     7
100
AcDbBlockReference
  2
LAT-R_0
 10
8010.744054671974
 20
6021.269299250255
 30
0.0
 41
2.5
 42
2.5
 50
180.0
  0
INSERT
  5
1313
330
406
100
AcDbEntity
  8
2-53DIM
 62
     7
100
AcDbBlockReference
  2
012_3
 10
8394.132844795732
 20
6085.282175626253
 30
0.0
  0
INSERT
  5
1314
330
406
100
AcDbEntity
  8
2-53DIM
 62
     7
100
AcDbBlockReference
  2
CCG-L30-T_1
 10
8010.744054671974
 20
6021.269299250255
 30
0.0
 41
2.5
 42
2.5
 50
180.0
  0
INSERT
  5
1315
330
406
100
AcDbEntity
  8
2-53DIM
 62
     7
100
AcDbBlockReference
  2
CCG-L30-T_1
 10
8310.744054671976
 20
6021.269299250255
 30
0.0
 41
2.5
 42
2.5
 50
180.0
  0
LINE
  5
1316
330
406
100
AcDbEntity
  8
2-53DIM
  6
CENTER2
 62
     3
 48
0.5
100
AcDbLine
 10
2985.827371787392
 20
6021.269299183614
 30
0.0
 11
8523.025381424988
 21
6021.269299183613
 31
0.0
  0
LINE
  5
1317
330
406
100
AcDbEntity
  8
2-53DIM
  6
Continuous
 62
     7
 48
0.5
100
AcDbLine
 10
2450.744054787393
 20
6691.269299183615
 30
0.0
 11
8910.744054671974
 21
6691.269299183613
 31
0.0
  0
INSERT
  5
1318
330
406
100
AcDbEntity
  8
2-53DIM
 62
     7
100
AcDbBlockReference
  2
CCG-L30-T_1
 10
7410.744054671974
 20
6021.269299250255
 30
0.0
 41
2.5
 42
2.5
 50
180.0
  0
LINE
  5
1319
330
406
100
AcDbEntity
  8
2-53DIM
  6
Continuous
 62
     7
 48
0.5
100
AcDbLine
 10
7509.244054671974
 20
6171.269299183617
 30
0.0
 11
7660.744054671974
 21
6171.269299183617
 31
0.0
  0
LINE
  5
131A
330
406
100
AcDbEntity
  8
2-53DIM
  6
Continuous
 62
     7
 48
0.5
100
AcDbLine
 10
7557.443306671974
 20
5871.269299183616
 30
0.0
 11
7660.744054671972
 21
5871.269299183616
 31
0.0
  0
LINE
  5
131B
330
406
100
AcDbEntity
  8
2-53DIM
  6
Continuous
 62
     7
 48
0.5
100
AcDbLine
 10
7760.744054671973
 20
5871.269299183616
 30
0.0
 11
7912.244054671974
 21
5871.269299183616
 31
0.0
  0
LINE
  5
131C
330
406
100
AcDbEntity
  8
2-53DIM
  6
Continuous
 62
     7
 48
0.5
100
AcDbLine
 10
7760.744054671974
 20
6171.269299183617
 30
0.0
 11
7864.043232671973
 21
6171.269299183617
 31
0.0
  0
ARC
  5
131D
330
406
100
AcDbEntity
  8
2-53DIM
  6
Continuous
 62
     7
100
AcDbCircle
 10
7581.994054671969
 20
6096.269299183615
 30
0.0
 40
108.750000000004
100
AcDbArc
 50
316.397181027298
 51
403.602818972703
  0
ARC
  5
131E
330
406
100
AcDbEntity
  8
2-53DIM
  6
Continuous
 62
     7
100
AcDbCircle
 10
7739.494054671978
 20
5946.269299183612
 30
0.0
 40
108.750000000004
100
AcDbArc
 50
136.397181027298
 51
223.602818972703
  0
LINE
  5
131F
330
406
100
AcDbEntity
  8
2-53DIM
  6
Continuous
 62
     7
 48
0.5
100
AcDbLine
 10
7543.725887671974
 20
5895.029299183614
 30
0.0
 11
7643.572081693931
 21
5895.029299183614
 31
0.0
  0
LINE
  5
1320
330
406
100
AcDbEntity
  8
2-53DIM
  6
Continuous
 62
     7
 48
0.5
100
AcDbLine
 10
7510.744054671974
 20
6147.509299183615
 30
0.0
 11
7677.916027650015
 21
6147.509299183615
 31
0.0
  0
ARC
  5
1321
330
406
100
AcDbEntity
  8
2-53DIM
  6
Continuous
 62
     7
100
AcDbCircle
 10
7681.994054671969
 20
6096.269299183615
 30
0.0
 40
108.750000000004
100
AcDbArc
 50
316.397181027298
 51
403.602818972703
  0
ARC
  5
1322
330
406
100
AcDbEntity
  8
2-53DIM
  6
Continuous
 62
     7
100
AcDbCircle
 10
7839.494054671978
 20
5946.269299183612
 30
0.0
 40
108.750000000004
100
AcDbArc
 50
136.397181027298
 51
223.602818972703
  0
LINE
  5
1323
330
406
100
AcDbEntity
  8
2-53DIM
  6
Continuous
 62
     7
 48
0.5
100
AcDbLine
 10
7777.916027650014
 20
6147.509299183615
 30
0.0
 11
7877.761075671974
 21
6147.509299183615
 31
0.0
  0
LINE
  5
1324
330
406
100
AcDbEntity
  8
2-53DIM
  6
Continuous
 62
     7
 48
0.5
100
AcDbLine
 10
7743.572081693931
 20
5895.029299183614
 30
0.0
 11
7910.744054671972
 21
5895.029299183614
 31
0.0
  0
LINE
  5
1325
330
406
100
AcDbEntity
  8
2-53DIM
  6
Continuous
 62
     7
 48
0.5
100
AcDbLine
 10
8910.744054671974
 20
4967.269299183612
 30
0.0
 11
8910.744054671974
 21
6691.269299183613
 31
0.0
  0
LWPOLYLINE
  5
1326
330
406
100
AcDbEntity
  8
2-53DIM
  6
Continuous
 62
     3
100
AcDbPolyline
 90
        2
 70
     1
 43
8.0
 10
9256.744000000001
 20
6691.269
 42
1.0
 10
9264.744
 20
6691.269
 42
1.0
  0
LWPOLYLINE
  5
132A
330
406
100
AcDbEntity
  8
2-53DIM
  6
Continuous
 62
     3
100
AcDbPolyline
 90
        2
 70
     1
 43
8.0
 10
9256.744000000001
 20
6639.269
 42
1.0
 10
9264.744
 20
6639.269
 42
1.0
  0
LINE
  5
132E
330
406
100
AcDbEntity
  8
2-53DIM
  6
Continuous
 62
     3
 48
0.5
100
AcDbLine
 10
9280.744054671972
 20
6691.269299183613
 30
0.0
 11
8930.744054671974
 21
6691.269299183613
 31
0.0
  0
LINE
  5
132F
330
406
100
AcDbEntity
  8
2-53DIM
  6
Continuous
 62
     3
 48
0.5
100
AcDbLine
 10
9280.744054671972
 20
6639.269299183614
 30
0.0
 11
7751.78074218378
 21
6639.269299183614
 31
0.0
  0
LWPOLYLINE
  5
1330
330
406
100
AcDbEntity
  8
2-53DIM
  6
Continuous
 62
     3
100
AcDbPolyline
 90
        2
 70
     1
 43
8.0
 10
9256.744000000001
 20
6021.269
 42
1.0
 10
9264.744
 20
6021.269
 42
1.0
  0
LINE
  5
1334
330
406
100
AcDbEntity
  8
2-53DIM
  6
Continuous
 62
     3
 48
0.5
100
AcDbLine
 10
9280.744054671972
 20
6021.269299183613
 30
0.0
 11
8543.025381424987
 21
6021.269299183613
 31
0.0
  0
LINE
  5
1335
330
406
100
AcDbEntity
  8
2-53DIM
  6
Continuous
 62
     3
 48
0.5
100
AcDbLine
 10
9260.744054671974
 20
6639.269299183614
 30
0.0
 11
9260.744054671974
 21
6021.269299183613
 31
0.0
  0
TEXT
  5
1336
330
406
100
AcDbEntity
  8
2-53DIM
 62
     3
370
    -3
100
AcDbText
 10
9240.744000000001
 20
6277.126306666668
 30
0.0
 40
71.06
  1
618
 50
90.0
 41
0.7480000000000002
 72
     1
 11
9240.744000000001
 21
6339.138000000001
 31
0.0
100
AcDbText
 73
     1
  0
LWPOLYLINE
  5
1337
330
406
100
AcDbEntity
  8
2-53DIM
  6
Continuous
 62
     3
100
AcDbPolyline
 90
        2
 70
     1
 43
8.0
 10
9256.744000000001
 20
5416.269
 42
1.0
 10
9264.744
 20
5416.269
 42
1.0
  0
LINE
  5
133B
330
406
100
AcDbEntity
  8
2-53DIM
  6
Continuous
 62
     3
 48
0.5
100
AcDbLine
 10
9280.744054671972
 20
5416.269299183613
 30
0.0
 11
8543.025381424987
 21
5416.269299183613
 31
0.0
  0
LINE
  5
133C
330
406
100
AcDbEntity
  8
2-53DIM
  6
Continuous
 62
     3
 48
0.5
100
AcDbLine
 10
9260.744054671974
 20
6021.269299183613
 30
0.0
 11
9260.744054671974
 21
5416.269299183613
 31
0.0
  0
TEXT
  5
133D
330
406
100
AcDbEntity
  8
2-53DIM
 62
     3
370
    -3
100
AcDbText
 10
9240.744000000001
 20
5665.993450000001
 30
0.0
 40
71.06
  1
605
 50
90.0
 41
0.6940000000000001
 72
     1
 11
9240.744000000001
 21
5727.638000000001
 31
0.0
100
AcDbText
 73
     1
  0
LWPOLYLINE
  5
133E
330
406
100
AcDbEntity
  8
2-53DIM
  6
Continuous
 62
     3
100
AcDbPolyline
 90
        2
 70
     1
 43
8.0
 10
9256.744000000001
 20
5167.269000000001
 42
1.0
 10
9264.744
 20
5167.269000000001
 42
1.0
  0
LINE
  5
1342
330
406
100
AcDbEntity
  8
2-53DIM
  6
Continuous
 62
     3
 48
0.5
100
AcDbLine
 10
9260.744054671974
 20
5416.269299183613
 30
0.0
 11
9260.744054671974
 21
5167.269299183613
 31
0.0
  0
TEXT
  5
1343
330
406
100
AcDbEntity
  8
2-53DIM
 62
     3
370
    -3
100
AcDbText
 10
9240.744000000001
 20
5237.726213333335
 30
0.0
 40
71.06
  1
249
 50
90.0
 41
0.6640000000000002
 72
     1
 11
9240.744000000001
 21
5300.638000000001
 31
0.0
100
AcDbText
 73
     1
  0
LINE
  5
1344
330
406
100
AcDbEntity
  8
2-53DIM
  6
Continuous
 62
     3
 48
0.5
100
AcDbLine
 10
9280.744054671972
 20
5167.269299183613
 30
0.0
 11
8756.148525305485
 21
5167.269299183613
 31
0.0
  0
LWPOLYLINE
  5
1345
330
406
100
AcDbEntity
  8
2-53DIM
  6
Continuous
 62
     3
100
AcDbPolyline
 90
        2
 70
     1
 43
8.0
 10
9396.744000000001
 20
6691.269
 42
1.0
 10
9404.744
 20
6691.269
 42
1.0
  0
LWPOLYLINE
  5
1349
330
406
100
AcDbEntity
  8
2-53DIM
  6
Continuous
 62
     3
100
AcDbPolyline
 90
        2
 70
     1
 43
8.0
 10
9396.744000000001
 20
6021.269
 42
1.0
 10
9404.744
 20
6021.269
 42
1.0
  0
LINE
  5
134D
330
406
100
AcDbEntity
  8
2-53DIM
  6
Continuous
 62
     3
 48
0.5
100
AcDbLine
 10
9420.744054671974
 20
6691.269299183613
 30
0.0
 11
8930.744054671974
 21
6691.269299183613
 31
0.0
  0
LINE
  5
134E
330
406
100
AcDbEntity
  8
2-53DIM
  6
Continuous
 62
     3
 48
0.5
100
AcDbLine
 10
9420.744054671974
 20
6021.269299183613
 30
0.0
 11
8543.025381424987
 21
6021.269299183613
 31
0.0
  0
LINE
  5
134F
330
406
100
AcDbEntity
  8
2-53DIM
  6
Continuous
 62
     3
 48
0.5
100
AcDbLine
 10
9400.744054671973
 20
6691.269299183613
 30
0.0
 11
9400.744054671973
 21
6021.269299183613
 31
0.0
  0
TEXT
  5
1350
330
406
100
AcDbEntity
  8
2-53DIM
 62
     3
370
    -3
100
AcDbText
 10
9380.744000000001
 20
6301.716950000001
 30
0.0
 40
71.06
  1
670
 50
90.0
 41
0.7140000000000001
 72
     1
 11
9380.744000000001
 21
6365.138000000001
 31
0.0
100
AcDbText
 73
     1
  0
LWPOLYLINE
  5
1351
330
406
100
AcDbEntity
  8
2-53DIM
  6
Continuous
 62
     3
100
AcDbPolyline
 90
        2
 70
     1
 43
8.0
 10
9396.744000000001
 20
5167.269000000001
 42
1.0
 10
9404.744
 20
5167.269000000001
 42
1.0
  0
LINE
  5
1355
330
406
100
AcDbEntity
  8
2-53DIM
  6
Continuous
 62
     3
 48
0.5
100
AcDbLine
 10
9420.744054671974
 20
5167.269299183613
 30
0.0
 11
8776.148525305485
 21
5167.269299183613
 31
0.0
  0
LINE
  5
1356
330
406
100
AcDbEntity
  8
2-53DIM
  6
Continuous
 62
     3
 48
0.5
100
AcDbLine
 10
9400.744054671973
 20
6021.269299183613
 30
0.0
 11
9400.744054671973
 21
5167.269299183613
 31
0.0
  0
TEXT
  5
1357
330
406
100
AcDbEntity
  8
2-53DIM
 62
     3
370
    -3
100
AcDbText
 10
9380.744000000001
 20
5540.510453333334
 30
0.0
 40
71.06
  1
854
 50
90.0
 41
0.6610000000000002
 72
     1
 11
9380.744000000001
 21
5603.138000000001
 31
0.0
100
AcDbText
 73
     1
  0
LWPOLYLINE
  5
1358
330
406
100
AcDbEntity
  8
2-53DIM
  6
Continuous
 62
     3
100
AcDbPolyline
 90
        2
 70
     1
 43
8.0
 10
9536.744
 20
6691.269
 42
1.0
 10
9544.744000000001
 20
6691.269
 42
1.0
  0
LWPOLYLINE
  5
135C
330
406
100
AcDbEntity
  8
2-53DIM
  6
Continuous
 62
     3
100
AcDbPolyline
 90
        2
 70
     1
 43
8.0
 10
9536.744
 20
5167.269000000001
 42
1.0
 10
9544.744000000001
 20
5167.269000000001
 42
1.0
  0
LINE
  5
1360
330
406
100
AcDbEntity
  8
2-53DIM
  6
Continuous
 62
     3
 48
0.5
100
AcDbLine
 10
9560.744054671976
 20
6691.269299183613
 30
0.0
 11
8930.744054671974
 21
6691.269299183613
 31
0.0
  0
LINE
  5
1361
330
406
100
AcDbEntity
  8
2-53DIM
  6
Continuous
 62
     3
 48
0.5
100
AcDbLine
 10
9560.744054671976
 20
5167.269299183613
 30
0.0
 11
8776.148525305485
 21
5167.269299183613
 31
0.0
  0
LINE
  5
1362
330
406
100
AcDbEntity
  8
2-53DIM
  6
Continuous
 62
     3
 48
0.5
100
AcDbLine
 10
9540.744054671971
 20
6691.269299183613
 30
0.0
 11
9540.744054671971
 21
5167.269299183613
 31
0.0
  0
TEXT
  5
1363
330
406
100
AcDbEntity
  8
2-53DIM
 62
     3
370
    -3
100
AcDbText
 10
9520.744
 20
5854.036566666667
 30
0.0
 40
71.06
  1
1524
 50
90.0
 41
0.721
 72
     1
 11
9520.744
 21
5939.427
 31
0.0
100
AcDbText
 73
     1
  0
LINE
  5
1364
330
406
100
AcDbEntity
  8
2-53DIM
  6
Continuous
 62
     3
 48
0.5
100
AcDbLine
 10
9260.744054671974
 20
6691.269299183613
 30
0.0
 11
9260.744054671974
 21
6639.269299183614
 31
0.0
  0
TEXT
  5
1365
330
406
100
AcDbEntity
  8
2-53DIM
 62
     3
370
    -3
100
AcDbText
 10
9240.744000000001
 20
6726.192883333332
 30
0.0
 40
71.06
  1
52
 50
90.0
 41
0.619
 72
     1
 11
9240.744000000001
 21
6762.847999999999
 31
0.0
100
AcDbText
 73
     1
  0
LWPOLYLINE
  5
1366
330
406
100
AcDbEntity
  8
2-53DIM
  6
Continuous
 62
     3
100
AcDbPolyline
 90
        2
 70
     1
 43
8.0
 10
8906.744000000001
 20
7041.268999999998
 42
1.0
 10
8914.744
 20
7041.268999999998
 42
1.0
  0
LWPOLYLINE
  5
136A
330
406
100
AcDbEntity
  8
2-53DIM
  6
Continuous
 62
     3
100
AcDbPolyline
 90
        2
 70
     1
 43
8.0
 10
8846.744000000001
 20
7041.268999999998
 42
1.0
 10
8854.744000000001
 20
7041.268999999998
 42
1.0
  0
LINE
  5
136E
330
406
100
AcDbEntity
  8
2-53DIM
  6
Continuous
 62
     3
 48
0.5
100
AcDbLine
 10
8910.744054671974
 20
7061.269299183613
 30
0.0
 11
8910.744054671974
 21
6711.269299183612
 31
0.0
  0
LINE
  5
136F
330
406
100
AcDbEntity
  8
2-53DIM
  6
Continuous
 62
     3
 48
0.5
100
AcDbLine
 10
8850.744054671974
 20
7061.269299183613
 30
0.0
 11
8850.744054671974
 21
5259.380367106079
 31
0.0
  0
LWPOLYLINE
  5
1370
330
406
100
AcDbEntity
  8
2-53DIM
  6
Continuous
 62
     3
100
AcDbPolyline
 90
        2
 70
     1
 43
8.0
 10
8306.744
 20
7041.268999999998
 42
1.0
 10
8314.744000000001
 20
7041.268999999998
 42
1.0
  0
LINE
  5
1374
330
406
100
AcDbEntity
  8
2-53DIM
  6
Continuous
 62
     3
 48
0.5
100
AcDbLine
 10
8310.744054671976
 20
7061.269299183613
 30
0.0
 11
8310.744054671976
 21
6255.404180183615
 31
0.0
  0
LINE
  5
1375
330
406
100
AcDbEntity
  8
2-53DIM
  6
Continuous
 62
     3
 48
0.5
100
AcDbLine
 10
8850.744054671974
 20
7041.269299183612
 30
0.0
 11
8310.744054671976
 21
7041.269299183612
 31
0.0
  0
TEXT
  5
1376
330
406
100
AcDbEntity
  8
2-53DIM
 62
     3
370
    -3
100
AcDbText
 10
8526.190949999998
 20
7061.269
 30
0.0
 40
71.06
  1
540
 41
0.7140000000000001
 72
     1
 11
8589.612
 21
7061.269
 31
0.0
100
AcDbText
 73
     1
  0
LWPOLYLINE
  5
1377
330
406
100
AcDbEntity
  8
2-53DIM
  6
Continuous
 62
     3
100
AcDbPolyline
 90
        2
 70
     1
 43
8.0
 10
8906.744000000001
 20
7181.269
 42
1.0
 10
8914.744
 20
7181.269
 42
1.0
  0
LWPOLYLINE
  5
137B
330
406
100
AcDbEntity
  8
2-53DIM
  6
Continuous
 62
     3
100
AcDbPolyline
 90
        2
 70
     1
 43
8.0
 10
8306.744
 20
7181.269
 42
1.0
 10
8314.744000000001
 20
7181.269
 42
1.0
  0
LINE
  5
137F
330
406
100
AcDbEntity
  8
2-53DIM
  6
Continuous
 62
     3
 48
0.5
100
AcDbLine
 10
8910.744054671974
 20
7201.269299183613
 30
0.0
 11
8910.744054671974
 21
6711.269299183612
 31
0.0
  0
LINE
  5
1380
330
406
100
AcDbEntity
  8
2-53DIM
  6
Continuous
 62
     3
 48
0.5
100
AcDbLine
 10
8310.744054671976
 20
7201.269299183613
 30
0.0
 11
8310.744054671976
 21
6255.404180183615
 31
0.0
  0
LINE
  5
1381
330
406
100
AcDbEntity
  8
2-53DIM
  6
Continuous
 62
     3
 48
0.5
100
AcDbLine
 10
8910.744054671974
 20
7181.269299183613
 30
0.0
 11
8310.744054671976
 21
7181.269299183613
 31
0.0
  0
TEXT
  5
1382
330
406
100
AcDbEntity
  8
2-53DIM
 62
     3
370
    -3
100
AcDbText
 10
8557.600306666666
 20
7201.269
 30
0.0
 40
71.06
  1
600
 41
0.7480000000000002
 72
     1
 11
8619.612
 21
7201.269
 31
0.0
100
AcDbText
 73
     1
  0
LINE
  5
1383
330
406
100
AcDbEntity
  8
2-53DIM
  6
Continuous
 62
     3
 48
0.5
100
AcDbLine
 10
8910.744054671974
 20
7041.269299183612
 30
0.0
 11
8850.744054671974
 21
7041.269299183612
 31
0.0
  0
TEXT
  5
1384
330
406
100
AcDbEntity
  8
2-53DIM
 62
     3
370
    -3
100
AcDbText
 10
8943.897305
 20
7061.269
 30
0.0
 40
71.06
  1
60
 41
0.721
 72
     1
 11
8982.323
 21
7061.269
 31
0.0
100
AcDbText
 73
     1
  0
LWPOLYLINE
  5
1385
330
406
100
AcDbEntity
  8
2-53DIM
  6
Continuous
 62
     3
100
AcDbPolyline
 90
        2
 70
     1
 43
8.0
 10
8306.744
 20
4827.269000000001
 42
1.0
 10
8314.744000000001
 20
4827.269000000001
 42
1.0
  0
LWPOLYLINE
  5
1389
330
406
100
AcDbEntity
  8
2-53DIM
  6
Continuous
 62
     3
100
AcDbPolyline
 90
        2
 70
     1
 43
8.0
 10
8406.744000000001
 20
4827.269000000001
 42
1.0
 10
8414.744
 20
4827.269000000001
 42
1.0
  0
LINE
  5
138D
330
406
100
AcDbEntity
  8
2-53DIM
  6
Continuous
 62
     3
 48
0.5
100
AcDbLine
 10
8310.744054671976
 20
4807.269299183616
 30
0.0
 11
8310.744054671976
 21
5787.134418183615
 31
0.0
  0
LINE
  5
138E
330
406
100
AcDbEntity
  8
2-53DIM
  6
Continuous
 62
     3
 48
0.5
100
AcDbLine
 10
8410.744054671974
 20
4807.269299183616
 30
0.0
 11
8410.744054671974
 21
5854.969299183617
 31
0.0
  0
LWPOLYLINE
  5
138F
330
406
100
AcDbEntity
  8
2-53DIM
  6
Continuous
 62
     3
100
AcDbPolyline
 90
        2
 70
     1
 43
8.0
 10
8906.744000000001
 20
4827.269000000001
 42
1.0
 10
8914.744
 20
4827.269000000001
 42
1.0
  0
LINE
  5
1393
330
406
100
AcDbEntity
  8
2-53DIM
  6
Continuous
 62
     3
 48
0.5
100
AcDbLine
 10
8910.744054671974
 20
4807.269299183616
 30
0.0
 11
8910.744054671974
 21
4947.269299183613
 31
0.0
  0
LINE
  5
1394
330
406
100
AcDbEntity
  8
2-53DIM
  6
Continuous
 62
     3
 48
0.5
100
AcDbLine
 10
8410.744054671974
 20
4827.269299183615
 30
0.0
 11
8910.744054671974
 21
4827.269299183615
 31
0.0
  0
TEXT
  5
1395
330
406
100
AcDbEntity
  8
2-53DIM
 62
     3
370
    -3
100
AcDbText
 10
8607.766113333331
 20
4847.269
 30
0.0
 40
71.06
  1
500
 41
0.746
 72
     1
 11
8669.611999999998
 21
4847.269
 31
0.0
100
AcDbText
 73
     1
  0
LINE
  5
1396
330
406
100
AcDbEntity
  8
2-53DIM
  6
Continuous
 62
     3
 48
0.5
100
AcDbLine
 10
8310.744054671976
 20
4827.269299183615
 30
0.0
 11
8410.744054671974
 21
4827.269299183615
 31
0.0
  0
TEXT
  5
1397
330
406
100
AcDbEntity
  8
2-53DIM
 62
     3
370
    -3
100
AcDbText
 10
8168.010719999999
 20
4847.269
 30
0.0
 40
71.06
  1
100
 41
0.888
 72
     1
 11
8231.111999999999
 21
4847.269
 31
0.0
100
AcDbText
 73
     1
  0
INSERT
  5
1398
330
406
100
AcDbEntity
  8
2-53DIM
 62
     7
100
AcDbBlockReference
  2
012_3
 10
6594.132844795732
 20
6085.282175626253
 30
0.0
  0
INSERT
  5
1399
330
406
100
AcDbEntity
  8
2-53DIM
 62
     7
100
AcDbBlockReference
  2
CCG-L30-T_1
 10
6510.744054671973
 20
6021.269299250255
 30
0.0
 41
2.5
 42
2.5
 50
180.0
  0
INSERT
  5
139A
330
406
100
AcDbEntity
  8
2-53DIM
 62
     7
100
AcDbBlockReference
  2
LAT-R_0
 10
6810.744054671975
 20
6021.269299250255
 30
0.0
 41
2.5
 42
2.5
 50
180.0
  0
INSERT
  5
139B
330
406
100
AcDbEntity
  8
2-53DIM
 62
     7
100
AcDbBlockReference
  2
LAT-R_0
 10
6510.744054671973
 20
6021.269299250255
 30
0.0
 41
2.5
 42
2.5
 50
180.0
  0
INSERT
  5
139C
330
406
100
AcDbEntity
  8
2-53DIM
 62
     7
100
AcDbBlockReference
  2
CCG-L30-T_1
 10
6810.744054671975
 20
6021.269299250255
 30
0.0
 41
2.5
 42
2.5
 50
180.0
  0
INSERT
  5
139D
330
406
100
AcDbEntity
  8
2-53DIM
 62
     7
100
AcDbBlockReference
  2
CCG-L30-T_1
 10
6010.744054671973
 20
6021.269299250255
 30
0.0
 41
2.5
 42
2.5
 50
180.0
  0
INSERT
  5
139E
330
406
100
AcDbEntity
  8
2-53DIM
 62
     7
100
AcDbBlockReference
  2
012_3
 10
6094.132844795731
 20
6085.282175626253
 30
0.0
  0
LINE
  5
139F
330
406
100
AcDbEntity
  8
2-53DIM
  6
Continuous
 62
     7
 48
0.5
100
AcDbLine
 10
6109.244054671972
 20
6171.269299183616
 30
0.0
 11
6364.043232671973
 21
6171.269299183616
 31
0.0
  0
LINE
  5
13A0
330
406
100
AcDbEntity
  8
2-53DIM
  6
Continuous
 62
     7
 48
0.5
100
AcDbLine
 10
6110.744054671972
 20
6147.509299183615
 30
0.0
 11
6377.761075671972
 21
6147.509299183615
 31
0.0
  0
LINE
  5
13A1
330
406
100
AcDbEntity
  8
2-53DIM
  6
Continuous
 62
     7
 48
0.5
100
AcDbLine
 10
6157.443306635548
 20
5871.269299183615
 30
0.0
 11
6412.244054671972
 21
5871.269299183615
 31
0.0
  0
LINE
  5
13A2
330
406
100
AcDbEntity
  8
2-53DIM
  6
Continuous
 62
     7
 48
0.5
100
AcDbLine
 10
6143.725887603645
 20
5895.029299183614
 30
0.0
 11
6410.744054671972
 21
5895.029299183614
 31
0.0
  0
INSERT
  5
13A3
330
406
100
AcDbEntity
  8
2-53DIM
 62
     7
100
AcDbBlockReference
  2
CCG-L30-T_1
 10
5510.744054671971
 20
6021.269299250255
 30
0.0
 41
2.5
 42
2.5
 50
180.0
  0
INSERT
  5
13A4
330
406
100
AcDbEntity
  8
2-53DIM
 62
     7
100
AcDbBlockReference
  2
012_3
 10
5594.132844795731
 20
6085.282175626253
 30
0.0
  0
INSERT
  5
13A5
330
406
100
AcDbEntity
  8
2-53DIM
 62
     7
100
AcDbBlockReference
  2
LAT-R_0
 10
5210.74405467197
 20
6021.269299250255
 30
0.0
 41
2.5
 42
2.5
 50
180.0
  0
INSERT
  5
13A6
330
406
100
AcDbEntity
  8
2-53DIM
 62
     7
100
AcDbBlockReference
  2
CCG-L30-T_1
 10
5210.744054787393
 20
6021.269299250255
 30
0.0
 41
2.5
 42
2.5
 50
180.0
  0
LINE
  5
13A7
330
406
100
AcDbEntity
  8
2-53DIM
  6
Continuous
 62
     7
 48
0.5
100
AcDbLine
 10
5657.443306750968
 20
5871.269299183615
 30
0.0
 11
5912.244054671973
 21
5871.269299183615
 31
0.0
  0
LINE
  5
13A8
330
406
100
AcDbEntity
  8
2-53DIM
  6
Continuous
 62
     7
 48
0.5
100
AcDbLine
 10
5643.725887719067
 20
5895.029299183614
 30
0.0
 11
5910.744054671972
 21
5895.029299183614
 31
0.0
  0
LINE
  5
13A9
330
406
100
AcDbEntity
  8
2-53DIM
  6
Continuous
 62
     7
 48
0.5
100
AcDbLine
 10
5610.744054787392
 20
6147.509299183615
 30
0.0
 11
5877.761075671973
 21
6147.509299183615
 31
0.0
  0
LINE
  5
13AA
330
406
100
AcDbEntity
  8
2-53DIM
  6
Continuous
 62
     7
 48
0.5
100
AcDbLine
 10
5609.244054787393
 20
6171.269299183616
 30
0.0
 11
5864.043232671971
 21
6171.269299183616
 31
0.0
  0
INSERT
  5
13AB
330
406
100
AcDbEntity
  8
2-53DIM
 62
     7
100
AcDbBlockReference
  2
LAT-R_0
 10
7110.744054671974
 20
6021.269299250255
 30
0.0
 41
2.5
 42
2.5
 50
180.0
  0
INSERT
  5
13AC
330
406
100
AcDbEntity
  8
2-53DIM
 62
     7
100
AcDbBlockReference
  2
CCG-L30-T_1
 10
7110.744054671974
 20
6021.269299250255
 30
0.0
 41
2.5
 42
2.5
 50
180.0
  0
INSERT
  5
13AD
330
406
100
AcDbEntity
  8
2-53DIM
 62
     7
100
AcDbBlockReference
  2
LAT-R_0
 10
4910.744054671972
 20
6021.269299250255
 30
0.0
 41
2.5
 42
2.5
 50
180.0
  0
INSERT
  5
13AE
330
406
100
AcDbEntity
  8
2-53DIM
 62
     7
100
AcDbBlockReference
  2
CCG-L30-T_1
 10
4910.744054787392
 20
6021.269299250255
 30
0.0
 41
2.5
 42
2.5
 50
180.0
  0
INSERT
  5
13AF
330
406
100
AcDbEntity
  8
2-53DIM
 62
     7
100
AcDbBlockReference
  2
LAT-R_0
 10
4610.744054671971
 20
6021.269299250255
 30
0.0
 41
2.5
 42
2.5
 50
180.0
  0
INSERT
  5
13B0
330
406
100
AcDbEntity
  8
2-53DIM
 62
     7
100
AcDbBlockReference
  2
CCG-L30-T_1
 10
4610.744054787391
 20
6021.269299250255
 30
0.0
 41
2.5
 42
2.5
 50
180.0
  0
LINE
  5
13B1
330
406
100
AcDbEntity
  8
2-53DIM
  6
Continuous
 62
     7
 48
0.5
100
AcDbLine
 10
4460.74405467197
 20
6171.269299183617
 30
0.0
 11
4460.74405467197
 21
5871.269299183616
 31
0.0
  0
LINE
  5
13B2
330
406
100
AcDbEntity
  8
2-53DIM
  6
Continuous
 62
     7
 48
0.5
100
AcDbLine
 10
7260.744054671973
 20
6171.269299183617
 30
0.0
 11
7260.744054671973
 21
5871.269299183616
 31
0.0
  0
LWPOLYLINE
  5
13B3
330
406
100
AcDbEntity
  8
2-53DIM
  6
Continuous
 62
     3
100
AcDbPolyline
 90
        2
 70
     1
 43
8.0
 10
4306.744000000001
 20
4827.269000000001
 42
1.0
 10
4314.744000000001
 20
4827.269000000001
 42
1.0
  0
LINE
  5
13BB
330
406
100
AcDbEntity
  8
2-53DIM
  6
Continuous
 62
     3
 48
0.5
100
AcDbLine
 10
4310.744054787392
 20
4807.269299183615
 30
0.0
 11
4310.744054787392
 21
5787.134418183615
 31
0.0
  0
LWPOLYLINE
  5
13BE
330
406
100
AcDbEntity
  8
2-53DIM
  6
Continuous
 62
     3
100
AcDbPolyline
 90
        2
 70
     1
 43
8.0
 10
4606.743999999999
 20
4827.269000000001
 42
1.0
 10
4614.743999999999
 20
4827.269000000001
 42
1.0
  0
LINE
  5
13C2
330
406
100
AcDbEntity
  8
2-53DIM
  6
Continuous
 62
     3
 48
0.5
100
AcDbLine
 10
4610.744054787391
 20
4807.269299183615
 30
0.0
 11
4610.744054787391
 21
5787.134418183615
 31
0.0
  0
LWPOLYLINE
  5
13C5
330
406
100
AcDbEntity
  8
2-53DIM
  6
Continuous
 62
     3
100
AcDbPolyline
 90
        2
 70
     1
 43
8.0
 10
4906.743999999999
 20
4827.269000000001
 42
1.0
 10
4914.743999999998
 20
4827.269000000001
 42
1.0
  0
LINE
  5
13C9
330
406
100
AcDbEntity
  8
2-53DIM
  6
Continuous
 62
     3
 48
0.5
100
AcDbLine
 10
4910.744054787392
 20
4807.269299183615
 30
0.0
 11
4910.744054787392
 21
5787.134418183615
 31
0.0
  0
LINE
  5
13CA
330
406
100
AcDbEntity
  8
2-53DIM
  6
Continuous
 62
     3
 48
0.5
100
AcDbLine
 10
4610.744054787391
 20
4827.269299183615
 30
0.0
 11
4910.744054787392
 21
4827.269299183615
 31
0.0
  0
TEXT
  5
13CB
330
406
100
AcDbEntity
  8
2-53DIM
 62
     3
370
    -3
100
AcDbText
 10
4707.102886666667
 20
4847.269
 30
0.0
 40
71.06
  1
300
 41
0.754
 72
     1
 11
4769.612
 21
4847.269
 31
0.0
100
AcDbText
 73
     1
  0
LWPOLYLINE
  5
13CC
330
406
100
AcDbEntity
  8
2-53DIM
  6
Continuous
 62
     3
100
AcDbPolyline
 90
        2
 70
     1
 43
8.0
 10
5206.744
 20
4827.269000000001
 42
1.0
 10
5214.743999999999
 20
4827.269000000001
 42
1.0
  0
LINE
  5
13D0
330
406
100
AcDbEntity
  8
2-53DIM
  6
Continuous
 62
     3
 48
0.5
100
AcDbLine
 10
5210.744054787393
 20
4807.269299183615
 30
0.0
 11
5210.744054787393
 21
5787.134418183615
 31
0.0
  0
LINE
  5
13D1
330
406
100
AcDbEntity
  8
2-53DIM
  6
Continuous
 62
     3
 48
0.5
100
AcDbLine
 10
4910.744054787392
 20
4827.269299183615
 30
0.0
 11
5210.744054787393
 21
4827.269299183615
 31
0.0
  0
TEXT
  5
13D2
330
406
100
AcDbEntity
  8
2-53DIM
 62
     3
370
    -3
100
AcDbText
 10
5007.102886666666
 20
4847.269
 30
0.0
 40
71.06
  1
300
 41
0.754
 72
     1
 11
5069.612
 21
4847.269
 31
0.0
100
AcDbText
 73
     1
  0
LWPOLYLINE
  5
13D3
330
406
100
AcDbEntity
  8
2-53DIM
  6
Continuous
 62
     3
100
AcDbPolyline
 90
        2
 70
     1
 43
8.0
 10
5506.744000000001
 20
4827.269000000001
 42
1.0
 10
5514.744000000001
 20
4827.269000000001
 42
1.0
  0
LINE
  5
13D7
330
406
100
AcDbEntity
  8
2-53DIM
  6
Continuous
 62
     3
 48
0.5
100
AcDbLine
 10
5510.744054671971
 20
4807.269299183615
 30
0.0
 11
5510.744054671971
 21
5787.134418183615
 31
0.0
  0
LINE
  5
13D8
330
406
100
AcDbEntity
  8
2-53DIM
  6
Continuous
 62
     3
 48
0.5
100
AcDbLine
 10
5210.744054787393
 20
4827.269299183615
 30
0.0
 11
5510.744054671971
 21
4827.269299183615
 31
0.0
  0
TEXT
  5
13D9
330
406
100
AcDbEntity
  8
2-53DIM
 62
     3
370
    -3
100
AcDbText
 10
5307.102886666665
 20
4847.269
 30
0.0
 40
71.06
  1
300
 41
0.754
 72
     1
 11
5369.612
 21
4847.269
 31
0.0
100
AcDbText
 73
     1
  0
LWPOLYLINE
  5
13DA
330
406
100
AcDbEntity
  8
2-53DIM
  6
Continuous
 62
     3
100
AcDbPolyline
 90
        2
 70
     1
 43
8.0
 10
6506.744000000002
 20
4827.269000000001
 42
1.0
 10
6514.744
 20
4827.269000000001
 42
1.0
  0
LINE
  5
13DE
330
406
100
AcDbEntity
  8
2-53DIM
  6
Continuous
 62
     3
 48
0.5
100
AcDbLine
 10
6510.744054671973
 20
4807.269299183615
 30
0.0
 11
6510.744054671973
 21
5787.134418183615
 31
0.0
  0
LWPOLYLINE
  5
13DF
330
406
100
AcDbEntity
  8
2-53DIM
  6
Continuous
 62
     3
100
AcDbPolyline
 90
        2
 70
     1
 43
8.0
 10
6806.744000000001
 20
4827.269000000001
 42
1.0
 10
6814.744000000001
 20
4827.269000000001
 42
1.0
  0
LINE
  5
13E3
330
406
100
AcDbEntity
  8
2-53DIM
  6
Continuous
 62
     3
 48
0.5
100
AcDbLine
 10
6810.744054671975
 20
4807.269299183615
 30
0.0
 11
6810.744054671975
 21
5787.134418183615
 31
0.0
  0
LINE
  5
13E4
330
406
100
AcDbEntity
  8
2-53DIM
  6
Continuous
 62
     3
 48
0.5
100
AcDbLine
 10
6510.744054671973
 20
4827.269299183615
 30
0.0
 11
6810.744054671975
 21
4827.269299183615
 31
0.0
  0
TEXT
  5
13E5
330
406
100
AcDbEntity
  8
2-53DIM
 62
     3
370
    -3
100
AcDbText
 10
6607.102886666665
 20
4847.269
 30
0.0
 40
71.06
  1
300
 41
0.754
 72
     1
 11
6669.611999999999
 21
4847.269
 31
0.0
100
AcDbText
 73
     1
  0
LWPOLYLINE
  5
13E6
330
406
100
AcDbEntity
  8
2-53DIM
  6
Continuous
 62
     3
100
AcDbPolyline
 90
        2
 70
     1
 43
8.0
 10
7106.744
 20
4827.269000000001
 42
1.0
 10
7114.744
 20
4827.269000000001
 42
1.0
  0
LINE
  5
13EA
330
406
100
AcDbEntity
  8
2-53DIM
  6
Continuous
 62
     3
 48
0.5
100
AcDbLine
 10
7110.744054671974
 20
4807.269299183615
 30
0.0
 11
7110.744054671974
 21
5787.134418183615
 31
0.0
  0
LINE
  5
13EB
330
406
100
AcDbEntity
  8
2-53DIM
  6
Continuous
 62
     3
 48
0.5
100
AcDbLine
 10
6810.744054671975
 20
4827.269299183615
 30
0.0
 11
7110.744054671974
 21
4827.269299183615
 31
0.0
  0
TEXT
  5
13EC
330
406
100
AcDbEntity
  8
2-53DIM
 62
     3
370
    -3
100
AcDbText
 10
6907.102886666668
 20
4847.269
 30
0.0
 40
71.06
  1
300
 41
0.754
 72
     1
 11
6969.612000000001
 21
4847.269
 31
0.0
100
AcDbText
 73
     1
  0
LWPOLYLINE
  5
13F4
330
406
100
AcDbEntity
  8
2-53DIM
  6
Continuous
 62
     3
100
AcDbPolyline
 90
        2
 70
     1
 43
8.0
 10
7406.744
 20
4827.269000000001
 42
1.0
 10
7414.744
 20
4827.269000000001
 42
1.0
  0
LINE
  5
13F8
330
406
100
AcDbEntity
  8
2-53DIM
  6
Continuous
 62
     3
 48
0.5
100
AcDbLine
 10
7410.744054671974
 20
4807.269299183615
 30
0.0
 11
7410.744054671974
 21
5787.134418183615
 31
0.0
  0
LWPOLYLINE
  5
1407
330
406
100
AcDbEntity
  8
2-53DIM
  6
Continuous
 62
     3
100
AcDbPolyline
 90
        2
 70
     1
 43
8.0
 10
5506.744000000001
 20
4827.269000000001
 42
1.0
 10
5514.744000000001
 20
4827.269000000001
 42
1.0
  0
LWPOLYLINE
  5
140B
330
406
100
AcDbEntity
  8
2-53DIM
  6
Continuous
 62
     3
100
AcDbPolyline
 90
        2
 70
     1
 43
8.0
 10
6506.744000000002
 20
4827.269000000001
 42
1.0
 10
6514.744
 20
4827.269000000001
 42
1.0
  0
LWPOLYLINE
  5
140F
330
406
100
AcDbEntity
  8
2-53DIM
  6
Continuous
 62
     3
100
AcDbPolyline
 90
        2
 70
     1
 43
8.0
 10
5506.744000000001
 20
4967.269
 42
1.0
 10
5514.744000000001
 20
4967.269
 42
1.0
  0
LWPOLYLINE
  5
1413
330
406
100
AcDbEntity
  8
2-53DIM
  6
Continuous
 62
     3
100
AcDbPolyline
 90
        2
 70
     1
 43
8.0
 10
6006.744000000001
 20
4967.269
 42
1.0
 10
6014.744000000001
 20
4967.269
 42
1.0
  0
LINE
  5
1417
330
406
100
AcDbEntity
  8
2-53DIM
  6
Continuous
 62
     3
 48
0.5
100
AcDbLine
 10
6010.744054671973
 20
4947.269299183614
 30
0.0
 11
6010.744054671973
 21
5787.134418183615
 31
0.0
  0
LINE
  5
1418
330
406
100
AcDbEntity
  8
2-53DIM
  6
Continuous
 62
     3
 48
0.5
100
AcDbLine
 10
5510.744054671971
 20
4967.269299183612
 30
0.0
 11
6010.744054671973
 21
4967.269299183612
 31
0.0
  0
TEXT
  5
1419
330
406
100
AcDbEntity
  8
2-53DIM
 62
     3
370
    -3
100
AcDbText
 10
5707.766113333332
 20
4987.269000000001
 30
0.0
 40
71.06
  1
500
 41
0.746
 72
     1
 11
5769.611999999999
 21
4987.269000000001
 31
0.0
100
AcDbText
 73
     1
  0
LWPOLYLINE
  5
141A
330
406
100
AcDbEntity
  8
2-53DIM
  6
Continuous
 62
     3
100
AcDbPolyline
 90
        2
 70
     1
 43
8.0
 10
6506.744000000002
 20
4967.269
 42
1.0
 10
6514.744
 20
4967.269
 42
1.0
  0
LINE
  5
141E
330
406
100
AcDbEntity
  8
2-53DIM
  6
Continuous
 62
     3
 48
0.5
100
AcDbLine
 10
6010.744054671973
 20
4967.269299183612
 30
0.0
 11
6510.744054671973
 21
4967.269299183612
 31
0.0
  0
TEXT
  5
141F
330
406
100
AcDbEntity
  8
2-53DIM
 62
     3
370
    -3
100
AcDbText
 10
6207.766113333332
 20
4987.269000000001
 30
0.0
 40
71.06
  1
500
 41
0.746
 72
     1
 11
6269.611999999999
 21
4987.269000000001
 31
0.0
100
AcDbText
 73
     1
  0
LINE
  5
1421
330
406
100
AcDbEntity
  8
2-53DIM
  6
Continuous
 62
     3
 48
0.5
100
AcDbLine
 10
5510.744054671971
 20
4827.269299183615
 30
0.0
 11
6510.744054671973
 21
4827.269299183615
 31
0.0
  0
TEXT
  5
1422
330
406
100
AcDbEntity
  8
2-53DIM
 62
     3
370
    -3
100
AcDbText
 10
5608.503834666668
 20
4847.269
 30
0.0
 40
71.06
  1
引出スペース：１０００以上確保
 41
0.6760000000000001
 72
     1
 11
6034.428000000001
 21
4847.269
 31
0.0
100
AcDbText
 73
     1
  0
LINE
  5
1423
330
406
100
AcDbEntity
  8
2-23CENTER
  6
CENTER2
 62
     3
 48
0.5
100
AcDbLine
 10
7693.909125786468
 20
2128.002926896884
 30
0.0
 11
7695.521706786466
 21
2101.637472896885
 31
0.0
  0
LINE
  5
1424
330
406
100
AcDbEntity
  8
2-23CENTER
  6
CENTER2
 62
     3
 48
0.5
100
AcDbLine
 10
7632.332110786467
 20
2118.458148896885
 30
0.0
 11
7632.332110786467
 21
2099.629004896885
 31
0.0
  0
LINE
  5
1425
330
406
100
AcDbEntity
  8
2-23CENTER
  6
CENTER2
 62
     3
 48
0.5
100
AcDbLine
 10
7694.832110786467
 20
2118.458148896885
 30
0.0
 11
7694.832110786467
 21
2099.629004896885
 31
0.0
  0
LINE
  5
1426
330
406
100
AcDbEntity
  8
2-23CENTER
  6
CENTER2
 62
     3
 48
0.5
100
AcDbLine
 10
7693.877126786468
 20
2203.455005896884
 30
0.0
 11
7694.965107786469
 21
2185.666675896885
 31
0.0
  0
LINE
  5
1427
330
406
100
AcDbEntity
  8
2-23CENTER
  6
CENTER2
 62
     3
 48
0.5
100
AcDbLine
 10
7666.130052786468
 20
2175.058845896885
 30
0.0
 11
7697.679400786468
 21
2176.988487896885
 31
0.0
  0
LINE
  5
1428
330
406
100
AcDbEntity
  8
2-23CENTER
  6
CENTER2
 62
     3
 48
0.5
100
AcDbLine
 10
7656.193170786467
 20
2160.657862896886
 30
0.0
 11
7679.866391786468
 21
2139.713567896884
 31
0.0
  0
LINE
  5
1429
330
406
100
AcDbEntity
  8
2-23CENTER
  6
CENTER2
 62
     3
 48
0.5
100
AcDbLine
 10
7665.379552786467
 20
2132.475241896885
 30
0.0
 11
7685.107019786468
 21
2154.773088896885
 31
0.0
  0
LINE
  5
142A
330
406
100
AcDbEntity
  8
2-23CENTER
  6
CENTER2
 62
     3
 48
0.5
100
AcDbLine
 10
7673.969965786469
 20
2175.538355896885
 30
0.0
 11
7687.145344786469
 21
2176.344196896885
 31
0.0
  0
LINE
  5
142B
330
406
100
AcDbEntity
  8
2-23CENTER
  6
CENTER2
 62
     3
 48
0.5
100
AcDbLine
 10
7671.962106786468
 20
2146.706687896884
 30
0.0
 11
7662.075889786469
 21
2155.453271896884
 31
0.0
  0
LINE
  5
142C
330
406
100
AcDbEntity
  8
2-23CENTER
  6
CENTER2
 62
     3
 48
0.5
100
AcDbLine
 10
7692.822320786468
 20
2219.483829896884
 30
0.0
 11
7695.06597878647
 21
2182.800353896885
 31
0.0
  0
LINE
  5
142D
330
406
100
AcDbEntity
  8
2-23CENTER
  6
CENTER2
 62
     3
 48
0.5
100
AcDbLine
 10
7377.528302786469
 20
2183.219308896886
 30
0.0
 11
7378.673057786468
 21
2164.502736896884
 31
0.0
  0
LINE
  5
142E
330
406
100
AcDbEntity
  8
2-23CENTER
  6
CENTER2
 62
     3
 48
0.5
100
AcDbLine
 10
7350.274246786468
 20
2178.357958896884
 30
0.0
 11
7350.741263786467
 21
2170.722301896884
 31
0.0
  0
LINE
  5
142F
330
406
100
AcDbEntity
  8
2-23CENTER
  6
CENTER2
 62
     3
 48
0.5
100
AcDbLine
 10
7420.610699786468
 20
2174.995701896885
 30
0.0
 11
7420.143682786468
 21
2182.631358896885
 31
0.0
  0
LINE
  5
1430
330
406
100
AcDbEntity
  8
2-23CENTER
  6
CENTER2
 62
     3
 48
0.5
100
AcDbLine
 10
7828.279312786469
 20
2183.375904896884
 30
0.0
 11
7832.50154078647
 21
2114.343116896885
 31
0.0
  0
LINE
  5
1431
330
406
100
AcDbEntity
  8
2-23CENTER
  6
CENTER2
 62
     3
 48
0.5
100
AcDbLine
 10
7968.396194786468
 20
2144.791282896886
 30
0.0
 11
7970.008776786468
 21
2118.425829896885
 31
0.0
  0
LINE
  5
1432
330
406
100
AcDbEntity
  8
2-23CENTER
  6
CENTER2
 62
     3
 48
0.5
100
AcDbLine
 10
7969.088525786467
 20
2133.471781896884
 30
0.0
 11
7969.650172786469
 21
2124.288941896885
 31
0.0
  0
LINE
  5
1433
330
406
100
AcDbEntity
  8
2-23CENTER
  6
CENTER2
 62
     3
 48
0.5
100
AcDbLine
 10
8032.332110786468
 20
2118.458148896885
 30
0.0
 11
8032.332110786468
 21
2099.629004896885
 31
0.0
  0
LINE
  5
1434
330
406
100
AcDbEntity
  8
2-23CENTER
  6
CENTER2
 62
     3
 48
0.5
100
AcDbLine
 10
7832.332110786467
 20
2128.275949896884
 30
0.0
 11
7832.332110786467
 21
2069.323726896885
 31
0.0
  0
LINE
  5
1435
330
406
100
AcDbEntity
  8
2-23CENTER
  6
CENTER2
 62
     3
 48
0.5
100
AcDbLine
 10
7969.832110786467
 20
2099.629004896885
 30
0.0
 11
7969.832110786467
 21
2118.458148896885
 31
0.0
  0
LINE
  5
1436
330
406
100
AcDbEntity
  8
2-23CENTER
  6
CENTER2
 62
     3
 48
0.5
100
AcDbLine
 10
7960.320634786467
 20
2201.896523896885
 30
0.0
 11
7959.232653786468
 21
2219.684852896885
 31
0.0
  0
LINE
  5
1437
330
406
100
AcDbEntity
  8
2-23CENTER
  6
CENTER2
 62
     3
 48
0.5
100
AcDbLine
 10
7826.175765786468
 20
2217.768564896885
 30
0.0
 11
7829.092025786467
 21
2170.088172896884
 31
0.0
  0
LINE
  5
1438
330
406
100
AcDbEntity
  8
2-23CENTER
  6
CENTER2
 62
     3
 48
0.5
100
AcDbLine
 10
8001.851383786469
 20
2181.799235896885
 30
0.0
 11
7980.907088786468
 21
2158.126014896884
 31
0.0
  0
LINE
  5
1439
330
406
100
AcDbEntity
  8
2-23CENTER
  6
CENTER2
 62
     3
 48
0.5
100
AcDbLine
 10
7973.668762786468
 20
2172.612853896885
 30
0.0
 11
7995.966609786468
 21
2152.885385896884
 31
0.0
  0
LINE
  5
143A
330
406
100
AcDbEntity
  8
2-23CENTER
  6
CENTER2
 62
     3
 48
0.5
100
AcDbLine
 10
7990.233529786468
 20
2194.881873896884
 30
0.0
 11
7958.68418178647
 21
2192.952232896885
 31
0.0
  0
LINE
  5
143B
330
406
100
AcDbEntity
  8
2-23CENTER
  6
CENTER2
 62
     3
 48
0.5
100
AcDbLine
 10
7969.218237786468
 20
2193.596522896886
 30
0.0
 11
7982.39361778647
 21
2194.402364896885
 31
0.0
  0
LINE
  5
143C
330
406
100
AcDbEntity
  8
2-23CENTER
  6
CENTER2
 62
     3
 48
0.5
100
AcDbLine
 10
7996.646792786468
 20
2175.916515896884
 30
0.0
 11
7987.900209786468
 21
2166.030299896884
 31
0.0
  0
LINE
  5
143D
330
406
100
AcDbEntity
  8
2-23CENTER
  6
CENTER2
 62
     3
 48
0.5
100
AcDbLine
 10
7820.255042786469
 20
2314.571490896884
 30
0.0
 11
7828.565290786468
 21
2178.700199896884
 31
0.0
  0
LINE
  5
143E
330
406
100
AcDbEntity
  8
2-23CENTER
  6
CENTER2
 62
     3
 48
0.5
100
AcDbLine
 10
7958.326176786468
 20
2235.722749896885
 30
0.0
 11
7960.569834786468
 21
2199.039273896884
 31
0.0
  0
LINE
  5
143F
330
406
100
AcDbEntity
  8
2-13HIDDEN
  6
DASHED2
 62
     3
 48
0.5
100
AcDbLine
 10
7607.332110786467
 20
2109.712267896885
 30
0.0
 11
8057.332110786466
 21
2109.712267896885
 31
0.0
  0
LINE
  5
1440
330
406
100
AcDbEntity
  8
2-13HIDDEN
  6
DASHED2
 62
     3
 48
0.5
100
AcDbLine
 10
7289.435367786467
 20
2173.859937896885
 30
0.0
 11
8167.705714786469
 21
2227.577280896885
 31
0.0
  0
LINE
  5
1441
330
406
100
AcDbEntity
  8
2-13HIDDEN
  6
DASHED2
 62
     3
 48
0.5
100
AcDbLine
 10
7248.372297786467
 20
2151.974371896884
 30
0.0
 11
7249.198938786467
 21
2150.606030896884
 31
0.0
  0
LINE
  5
1442
330
406
100
AcDbEntity
  8
2-13HIDDEN
  6
DASHED2
 62
     3
 48
0.5
100
AcDbLine
 10
7274.401854786468
 20
2165.831597896884
 30
0.0
 11
7249.198938786467
 21
2150.606030896884
 31
0.0
  0
LINE
  5
1443
330
406
100
AcDbEntity
  8
2-13HIDDEN
  6
DASHED2
 62
     3
 48
0.5
100
AcDbLine
 10
7277.984071786469
 20
2169.880557896884
 30
0.0
 11
7248.372297786467
 21
2151.974371896884
 31
0.0
  0
LINE
  5
1444
330
406
100
AcDbEntity
  8
2-13HIDDEN
  6
DASHED2
 62
     3
 48
0.5
100
AcDbLine
 10
7241.783144786468
 20
2157.190079896885
 30
0.0
 11
7270.561671786468
 21
2161.491060896884
 31
0.0
  0
LINE
  5
1445
330
406
100
AcDbEntity
  8
2-13HIDDEN
  6
DASHED2
 62
     3
 48
0.5
100
AcDbLine
 10
7248.626990786469
 20
2151.135156896885
 30
0.0
 11
7263.345695786468
 21
2153.334881896884
 31
0.0
  0
LINE
  5
1446
330
406
100
AcDbEntity
  8
2-13HIDDEN
  6
DASHED2
 62
     3
 48
0.5
100
AcDbLine
 10
8115.251068786468
 20
2255.326757896885
 30
0.0
 11
8063.36025078647
 21
2284.713710896885
 31
0.0
  0
LINE
  5
1447
330
406
100
AcDbEntity
  8
2-13HIDDEN
  6
DASHED2
 62
     3
 48
0.5
100
AcDbLine
 10
8113.266990786469
 20
2287.766138896885
 30
0.0
 11
8117.23514778647
 21
2222.887377896885
 31
0.0
  0
ARC
  5
1448
330
406
100
AcDbEntity
  8
2-13HIDDEN
  6
DASHED2
 62
     3
100
AcDbCircle
 10
7378.090801786469
 20
2174.022528896885
 30
0.0
 40
3.5
100
AcDbArc
 50
98.50000000000001
 51
278.5000000000001
  0
CIRCLE
  5
1449
330
406
100
AcDbEntity
  8
2-13HIDDEN
  6
DASHED2
 62
     3
100
AcDbCircle
 10
7942.211821786468
 20
2196.152587896884
 30
0.0
 40
3.1
  0
LINE
  5
144A
330
406
100
AcDbEntity
  8
2-8工区
  6
Continuous
 62
     7
 48
0.5
100
AcDbLine
 10
7829.07310078647
 20
2170.397592896884
 30
0.0
 11
7680.974488786468
 21
2161.339488896885
 31
0.0
  0
LINE
  5
144B
330
406
100
AcDbEntity
  8
2-8工区
  6
Continuous
 62
     7
 48
0.5
100
AcDbLine
 10
7828.975422786467
 20
2171.994607896884
 30
0.0
 11
7680.028359786468
 21
2162.884610896885
 31
0.0
  0
LINE
  5
144C
330
406
100
AcDbEntity
  8
2-8工区
  6
Continuous
 62
     7
 48
0.5
100
AcDbLine
 10
7607.332110786467
 20
2112.912267896884
 30
0.0
 11
8057.332110786466
 21
2112.912267896884
 31
0.0
  0
LINE
  5
144D
330
406
100
AcDbEntity
  8
2-8工区
  6
Continuous
 62
     7
 48
0.5
100
AcDbLine
 10
7607.332110786467
 20
2082.912267896884
 30
0.0
 11
8057.332110786466
 21
2082.912267896884
 31
0.0
  0
LINE
  5
144E
330
406
100
AcDbEntity
  8
2-8工区
  6
Continuous
 62
     7
 48
0.5
100
AcDbLine
 10
7973.171086786469
 20
2210.870057896885
 30
0.0
 11
7681.116844786469
 21
2193.007245896883
 31
0.0
  0
LINE
  5
144F
330
406
100
AcDbEntity
  8
2-8工区
  6
Continuous
 62
     7
 48
0.5
100
AcDbLine
 10
7976.169762786469
 20
2214.259444896884
 30
0.0
 11
7677.727457786469
 21
2196.005921896885
 31
0.0
  0
LINE
  5
1450
330
406
100
AcDbEntity
  8
2-8工区
  6
Continuous
 62
     7
 48
0.5
100
AcDbLine
 10
7682.325606786467
 20
2173.244176896884
 30
0.0
 11
7974.379847786469
 21
2191.106988896883
 31
0.0
  0
LINE
  5
1451
330
406
100
AcDbEntity
  8
2-8工区
  6
Continuous
 62
     7
 48
0.5
100
AcDbLine
 10
7284.542371786469
 20
2171.957678896885
 30
0.0
 11
8167.141887786469
 21
2225.939805896885
 31
0.0
  0
LINE
  5
1452
330
406
100
AcDbEntity
  8
2-8工区
  6
Continuous
 62
     7
 48
0.5
100
AcDbLine
 10
7341.363478786468
 20
2259.690165896885
 30
0.0
 11
8435.264026786468
 21
2326.596023896885
 31
0.0
  0
LINE
  5
1453
330
406
100
AcDbEntity
  8
2-8工区
  6
Continuous
 62
     7
 48
0.5
100
AcDbLine
 10
7340.46230178647
 20
2240.499354896885
 30
0.0
 11
8436.43005378647
 21
2307.531648896884
 31
0.0
  0
LINE
  5
1454
330
406
100
AcDbEntity
  8
2-8工区
  6
Continuous
 62
     7
 48
0.5
100
AcDbLine
 10
7704.456926786469
 20
2139.991302896885
 30
0.0
 11
7681.264627786468
 21
2160.510113896885
 31
0.0
  0
LINE
  5
1455
330
406
100
AcDbEntity
  8
2-8工区
  6
Continuous
 62
     7
 48
0.5
100
AcDbLine
 10
7702.900370786467
 20
2139.232119896884
 30
0.0
 11
7680.204435786468
 21
2159.311784896884
 31
0.0
  0
LINE
  5
1456
330
406
100
AcDbEntity
  8
2-8工区
  6
Continuous
 62
     7
 48
0.5
100
AcDbLine
 10
7704.456926786469
 20
2139.991302896885
 30
0.0
 11
7706.023599786468
 21
2114.376427896885
 31
0.0
  0
LINE
  5
1457
330
406
100
AcDbEntity
  8
2-8工区
  6
Continuous
 62
     7
 48
0.5
100
AcDbLine
 10
7704.328906786469
 20
2115.875765896884
 30
0.0
 11
7702.900370786467
 21
2139.232119896884
 31
0.0
  0
LINE
  5
1458
330
406
100
AcDbEntity
  8
2-8工区
  6
Continuous
 62
     7
 48
0.5
100
AcDbLine
 10
7704.328906786469
 20
2115.875765896884
 30
0.0
 11
7682.210239786467
 21
2114.522928896884
 31
0.0
  0
LINE
  5
1459
330
406
100
AcDbEntity
  8
2-8工区
  6
Continuous
 62
     7
 48
0.5
100
AcDbLine
 10
7706.023599786468
 20
2114.376427896885
 30
0.0
 11
7682.307917786468
 21
2112.925913896884
 31
0.0
  0
LINE
  5
145A
330
406
100
AcDbEntity
  8
2-8工区
  6
Continuous
 62
     7
 48
0.5
100
AcDbLine
 10
7688.985540786468
 20
2163.432454896883
 30
0.0
 11
7695.972484786468
 21
2163.859795896884
 31
0.0
  0
LINE
  5
145B
330
406
100
AcDbEntity
  8
2-8工区
  6
Continuous
 62
     7
 48
0.5
100
AcDbLine
 10
7682.307917786468
 20
2112.925913896884
 30
0.0
 11
7682.210239786467
 21
2114.522928896884
 31
0.0
  0
LINE
  5
145C
330
406
100
AcDbEntity
  8
2-8工区
  6
Continuous
 62
     7
 48
0.5
100
AcDbLine
 10
7607.332110786467
 20
2112.912267896884
 30
0.0
 11
7607.332110786467
 21
2082.912267896884
 31
0.0
  0
LINE
  5
145D
330
406
100
AcDbEntity
  8
2-8工区
  6
Continuous
 62
     7
 48
0.5
100
AcDbLine
 10
7688.376994786469
 20
2164.397103896884
 30
0.0
 11
7687.815347786468
 21
2173.579943896884
 31
0.0
  0
LINE
  5
145E
330
406
100
AcDbEntity
  8
2-8工区
  6
Continuous
 62
     7
 48
0.5
100
AcDbLine
 10
7696.362073786467
 20
2164.885492896884
 30
0.0
 11
7695.800426786468
 21
2174.068332896884
 31
0.0
  0
LINE
  5
145F
330
406
100
AcDbEntity
  8
2-8工区
  6
Continuous
 62
     7
 48
0.5
100
AcDbLine
 10
7682.444651786468
 20
2171.297813896885
 30
0.0
 11
7687.934392786468
 21
2171.633580896886
 31
0.0
  0
LINE
  5
1460
330
406
100
AcDbEntity
  8
2-8工区
  6
Continuous
 62
     7
 48
0.5
100
AcDbLine
 10
7682.444651786468
 20
2171.297813896885
 30
0.0
 11
7681.864689786468
 21
2180.780094896884
 31
0.0
  0
LINE
  5
1461
330
406
100
AcDbEntity
  8
2-8工区
  6
Continuous
 62
     7
 48
0.5
100
AcDbLine
 10
7668.363928786469
 20
2172.189869896884
 30
0.0
 11
7667.997637786467
 21
2178.178678896884
 31
0.0
  0
LINE
  5
1462
330
406
100
AcDbEntity
  8
2-8工区
  6
Continuous
 62
     7
 48
0.5
100
AcDbLine
 10
7695.424986786469
 20
2163.826308896885
 30
0.0
 11
7689.436178786468
 21
2163.460017896885
 31
0.0
  0
LINE
  5
1463
330
406
100
AcDbEntity
  8
2-8工区
  6
Continuous
 62
     7
 48
0.5
100
AcDbLine
 10
7667.997637786467
 20
2178.178678896884
 30
0.0
 11
7678.777493786468
 21
2178.838002896885
 31
0.0
  0
LINE
  5
1464
330
406
100
AcDbEntity
  8
2-8工区
  6
Continuous
 62
     7
 48
0.5
100
AcDbLine
 10
7668.363928786469
 20
2172.189869896884
 30
0.0
 11
7679.143784786468
 21
2172.849194896885
 31
0.0
  0
LINE
  5
1465
330
406
100
AcDbEntity
  8
2-8工区
  6
Continuous
 62
     7
 48
0.5
100
AcDbLine
 10
7664.385143786467
 20
2137.387908896884
 30
0.0
 11
7680.288024786469
 21
2155.362846896886
 31
0.0
  0
LINE
  5
1466
330
406
100
AcDbEntity
  8
2-8工区
  6
Continuous
 62
     7
 48
0.5
100
AcDbLine
 10
7670.37678978647
 20
2132.086948896885
 30
0.0
 11
7686.279669786469
 21
2150.061886896885
 31
0.0
  0
LINE
  5
1467
330
406
100
AcDbEntity
  8
2-8工区
  6
Continuous
 62
     7
 48
0.5
100
AcDbLine
 10
7686.193334786469
 20
2151.473462896884
 30
0.0
 11
7681.699599786469
 21
2155.449182896885
 31
0.0
  0
LINE
  5
1468
330
406
100
AcDbEntity
  8
2-8工区
  6
Continuous
 62
     7
 48
0.5
100
AcDbLine
 10
7665.069882786468
 20
2146.462247896885
 30
0.0
 11
7669.189138786468
 21
2142.817837896885
 31
0.0
  0
LINE
  5
1469
330
406
100
AcDbEntity
  8
2-8工区
  6
Continuous
 62
     7
 48
0.5
100
AcDbLine
 10
7665.069882786468
 20
2146.462247896885
 30
0.0
 11
7671.364772786468
 21
2153.577327896885
 31
0.0
  0
LINE
  5
146A
330
406
100
AcDbEntity
  8
2-8工区
  6
Continuous
 62
     7
 48
0.5
100
AcDbLine
 10
7655.744086786469
 20
2157.049600896885
 30
0.0
 11
7659.719806786468
 21
2161.543335896884
 31
0.0
  0
LINE
  5
146B
330
406
100
AcDbEntity
  8
2-8工区
  6
Continuous
 62
     7
 48
0.5
100
AcDbLine
 10
7671.364772786468
 20
2153.577327896885
 30
0.0
 11
7675.484028786468
 21
2149.932917896885
 31
0.0
  0
LINE
  5
146C
330
406
100
AcDbEntity
  8
2-8工区
  6
Continuous
 62
     7
 48
0.5
100
AcDbLine
 10
7668.965213786468
 20
2132.000612896884
 30
0.0
 11
7664.471479786468
 21
2135.976332896885
 31
0.0
  0
LINE
  5
146D
330
406
100
AcDbEntity
  8
2-8工区
  6
Continuous
 62
     7
 48
0.5
100
AcDbLine
 10
7659.719806786468
 20
2161.543335896884
 30
0.0
 11
7667.808529786468
 21
2154.387038896884
 31
0.0
  0
LINE
  5
146E
330
406
100
AcDbEntity
  8
2-8工区
  6
Continuous
 62
     7
 48
0.5
100
AcDbLine
 10
7655.744086786469
 20
2157.049600896885
 30
0.0
 11
7663.832808786468
 21
2149.893304896885
 31
0.0
  0
LWPOLYLINE
  5
146F
330
406
100
AcDbEntity
  8
2-8工区
  6
Continuous
 62
     7
100
AcDbPolyline
 90
        3
 70
     0
 43
0.0
 10
7656.449195786469
 20
2136.718333896884
 10
7654.052536786467
 20
2138.838716896885
 10
7679.467007786468
 20
2167.564552896884
  0
LINE
  5
1474
330
406
100
AcDbEntity
  8
2-8工区
  6
Continuous
 62
     7
 48
0.5
100
AcDbLine
 10
7656.449195786469
 20
2136.718333896884
 30
0.0
 11
7682.741957786468
 21
2166.436897896885
 31
0.0
  0
LINE
  5
1475
330
406
100
AcDbEntity
  8
2-8工区
  6
Continuous
 62
     7
 48
0.5
100
AcDbLine
 10
7679.467007786468
 20
2167.564552896884
 30
0.0
 11
7677.727457786469
 21
2196.005921896885
 31
0.0
  0
LINE
  5
1476
330
406
100
AcDbEntity
  8
2-8工区
  6
Continuous
 62
     7
 48
0.5
100
AcDbLine
 10
7682.741957786468
 20
2166.436897896885
 30
0.0
 11
7680.921489786467
 21
2196.201276896884
 31
0.0
  0
LINE
  5
1477
330
406
100
AcDbEntity
  8
2-8工区
  6
Continuous
 62
     7
 48
0.5
100
AcDbLine
 10
7255.791558786468
 20
2144.796482896884
 30
0.0
 11
7241.486503786467
 21
2157.452525896885
 31
0.0
  0
LINE
  5
1478
330
406
100
AcDbEntity
  8
2-8工区
  6
Continuous
 62
     7
 48
0.5
100
AcDbLine
 10
7284.542371786469
 20
2171.957678896885
 30
0.0
 11
7274.401854786468
 21
2165.831597896884
 31
0.0
  0
LINE
  5
1479
330
406
100
AcDbEntity
  8
2-8工区
  6
Continuous
 62
     7
 48
0.5
100
AcDbLine
 10
7284.016774786469
 20
2173.528521896884
 30
0.0
 11
7277.984071786469
 21
2169.880557896884
 31
0.0
  0
LINE
  5
147A
330
406
100
AcDbEntity
  8
2-8工区
  6
Continuous
 62
     7
 48
0.5
100
AcDbLine
 10
7289.435367786467
 20
2173.859937896885
 30
0.0
 11
7284.016774786469
 21
2173.528521896884
 31
0.0
  0
LINE
  5
147B
330
406
100
AcDbEntity
  8
2-8工区
  6
Continuous
 62
     7
 48
0.5
100
AcDbLine
 10
7288.922559786469
 20
2182.244269896886
 30
0.0
 11
7289.533045786469
 21
2172.262921896884
 31
0.0
  0
LINE
  5
147C
330
406
100
AcDbEntity
  8
2-8工区
  6
Continuous
 62
     7
 48
0.5
100
AcDbLine
 10
7255.791558786468
 20
2144.796482896884
 30
0.0
 11
7340.46230178647
 21
2240.499354896885
 31
0.0
  0
LINE
  5
147D
330
406
100
AcDbEntity
  8
2-8工区
  6
Continuous
 62
     7
 48
0.5
100
AcDbLine
 10
7241.486503786467
 20
2157.452525896885
 30
0.0
 11
7324.784916786469
 21
2251.604259896884
 31
0.0
  0
LINE
  5
147E
330
406
100
AcDbEntity
  8
2-8工区
  6
Continuous
 62
     7
 48
0.5
100
AcDbLine
 10
7284.444693786468
 20
2173.554694896884
 30
0.0
 11
7284.542371786469
 21
2171.957678896885
 31
0.0
  0
LINE
  5
147F
330
406
100
AcDbEntity
  8
2-8工区
  6
Continuous
 62
     7
 48
0.5
100
AcDbLine
 10
7339.439784786468
 20
2175.315350896884
 30
0.0
 11
7370.930937786468
 21
2177.241432896884
 31
0.0
  0
LINE
  5
1480
330
406
100
AcDbEntity
  8
2-8工区
  6
Continuous
 62
     7
 48
0.5
100
AcDbLine
 10
7339.439784786468
 20
2175.315350896884
 30
0.0
 11
7339.53746278647
 21
2173.718334896885
 31
0.0
  0
LINE
  5
1481
330
406
100
AcDbEntity
  8
2-8工区
  6
Continuous
 62
     7
 48
0.5
100
AcDbLine
 10
7431.268186786468
 20
2180.931818896884
 30
0.0
 11
7431.365863786469
 21
2179.334803896884
 31
0.0
  0
LINE
  5
1482
330
406
100
AcDbEntity
  8
2-8工区
  6
Continuous
 62
     7
 48
0.5
100
AcDbLine
 10
7374.320324786468
 20
2174.242756896885
 30
0.0
 11
7374.347796786468
 21
2173.793596896885
 31
0.0
  0
LINE
  5
1483
330
406
100
AcDbEntity
  8
2-8工区
  6
Continuous
 62
     7
 48
0.5
100
AcDbLine
 10
7381.80633578647
 20
2174.700621896885
 30
0.0
 11
7381.833807786468
 21
2174.251460896885
 31
0.0
  0
LINE
  5
1484
330
406
100
AcDbEntity
  8
2-8工区
  6
Continuous
 62
     7
 48
0.5
100
AcDbLine
 10
7339.53746278647
 20
2173.718334896885
 30
0.0
 11
7371.028615786468
 21
2175.644416896885
 31
0.0
  0
LINE
  5
1485
330
406
100
AcDbEntity
  8
2-8工区
  6
Continuous
 62
     7
 48
0.5
100
AcDbLine
 10
7384.902689786469
 20
2176.492992896885
 30
0.0
 11
7431.365863786469
 21
2179.334803896884
 31
0.0
  0
LINE
  5
1486
330
406
100
AcDbEntity
  8
2-8工区
  6
Continuous
 62
     7
 48
0.5
100
AcDbLine
 10
7384.805011786468
 20
2178.090007896884
 30
0.0
 11
7431.268186786468
 21
2180.931818896884
 31
0.0
  0
LINE
  5
1487
330
406
100
AcDbEntity
  8
2-8工区
  6
Continuous
 62
     7
 48
0.5
100
AcDbLine
 10
7372.723308786468
 20
2174.145079896885
 30
0.0
 11
7372.750780786468
 21
2173.695918896885
 31
0.0
  0
LINE
  5
1488
330
406
100
AcDbEntity
  8
2-8工区
  6
Continuous
 62
     7
 48
0.5
100
AcDbLine
 10
7383.403351786468
 20
2174.798298896884
 30
0.0
 11
7383.430823786468
 21
2174.349138896885
 31
0.0
  0
LINE
  5
1489
330
406
100
AcDbEntity
  8
2-8工区
  6
Continuous
 62
     7
 48
0.5
100
AcDbLine
 10
7378.608134786468
 20
2170.560972896884
 30
0.0
 11
7263.345695786468
 21
2153.334881896884
 31
0.0
  0
LINE
  5
148A
330
406
100
AcDbEntity
  8
2-8工区
  6
Continuous
 62
     7
 48
0.5
100
AcDbLine
 10
7377.573468786469
 20
2177.484083896884
 30
0.0
 11
7270.561671786468
 21
2161.491060896884
 31
0.0
  0
LINE
  5
148B
330
406
100
AcDbEntity
  8
2-8工区
  6
Continuous
 62
     7
 48
0.5
100
AcDbLine
 10
7351.364548786469
 20
2173.567133896884
 30
0.0
 11
7352.399214786469
 21
2166.644022896885
 31
0.0
  0
LINE
  5
148C
330
406
100
AcDbEntity
  8
2-8工区
  6
Continuous
 62
     7
 48
0.5
100
AcDbLine
 10
7241.783144786468
 20
2157.190079896885
 30
0.0
 11
7225.081798786469
 21
2154.694045896885
 31
0.0
  0
LINE
  5
148D
330
406
100
AcDbEntity
  8
2-8工区
  6
Continuous
 62
     7
 48
0.5
100
AcDbLine
 10
7248.626990786469
 20
2151.135156896885
 30
0.0
 11
7226.116464786469
 21
2147.770934896885
 31
0.0
  0
LINE
  5
148E
330
406
100
AcDbEntity
  8
2-8工区
  6
Continuous
 62
     7
 48
0.5
100
AcDbLine
 10
8275.83476678647
 20
2121.253681896884
 30
0.0
 11
8265.082501786467
 21
2297.051578896885
 31
0.0
  0
LINE
  5
148F
330
406
100
AcDbEntity
  8
2-8工区
  6
Continuous
 62
     7
 48
0.5
100
AcDbLine
 10
8283.807023786467
 20
2118.581077896884
 30
0.0
 11
8272.862191786467
 21
2297.527404896885
 31
0.0
  0
LINE
  5
1490
330
406
100
AcDbEntity
  8
2-8工区
  6
Continuous
 62
     7
 48
0.5
100
AcDbLine
 10
8303.925204786468
 20
2119.811489896886
 30
0.0
 11
8292.980368786468
 21
2298.757885896885
 31
0.0
  0
LINE
  5
1491
330
406
100
AcDbEntity
  8
2-8工区
  6
Continuous
 62
     7
 48
0.5
100
AcDbLine
 10
8311.512356786469
 20
2123.435304896885
 30
0.0
 11
8300.760059786467
 21
2299.233712896885
 31
0.0
  0
LINE
  5
1492
330
406
100
AcDbEntity
  8
2-8工区
  6
Continuous
 62
     7
 48
0.5
100
AcDbLine
 10
7829.07310078647
 20
2170.397592896884
 30
0.0
 11
7977.171712786469
 21
2179.455695896884
 31
0.0
  0
LINE
  5
1493
330
406
100
AcDbEntity
  8
2-8工区
  6
Continuous
 62
     7
 48
0.5
100
AcDbLine
 10
7828.975422786467
 20
2171.994607896884
 30
0.0
 11
7977.922485786469
 21
2181.104604896885
 31
0.0
  0
LINE
  5
1494
330
406
100
AcDbEntity
  8
2-8工区
  6
Continuous
 62
     7
 48
0.5
100
AcDbLine
 10
7956.465999786471
 20
2155.404845896886
 30
0.0
 11
7958.032673786469
 21
2129.789970896884
 31
0.0
  0
LINE
  5
1495
330
406
100
AcDbEntity
  8
2-8工区
  6
Continuous
 62
     7
 48
0.5
100
AcDbLine
 10
7959.53201178647
 20
2131.484663896885
 30
0.0
 11
7958.103474786469
 21
2154.841017896885
 31
0.0
  0
LINE
  5
1496
330
406
100
AcDbEntity
  8
2-8工区
  6
Continuous
 62
     7
 48
0.5
100
AcDbLine
 10
7959.53201178647
 20
2131.484663896885
 30
0.0
 11
7981.650678786467
 21
2132.837499896885
 31
0.0
  0
LINE
  5
1497
330
406
100
AcDbEntity
  8
2-8工区
  6
Continuous
 62
     7
 48
0.5
100
AcDbLine
 10
7981.748356786468
 20
2131.240484896885
 30
0.0
 11
7981.650678786467
 21
2132.837499896885
 31
0.0
  0
LINE
  5
1498
330
406
100
AcDbEntity
  8
2-8工区
  6
Continuous
 62
     7
 48
0.5
100
AcDbLine
 10
7968.965305786468
 20
2180.556759896885
 30
0.0
 11
7961.978360786469
 21
2180.129419896884
 31
0.0
  0
LINE
  5
1499
330
406
100
AcDbEntity
  8
2-8工区
  6
Continuous
 62
     7
 48
0.5
100
AcDbLine
 10
7958.032673786469
 20
2129.789970896884
 30
0.0
 11
7981.748356786468
 21
2131.240484896885
 31
0.0
  0
LINE
  5
149A
330
406
100
AcDbEntity
  8
2-8工区
  6
Continuous
 62
     7
 48
0.5
100
AcDbLine
 10
7958.103474786469
 20
2154.841017896885
 30
0.0
 11
7978.183140786469
 21
2177.536952896885
 31
0.0
  0
LINE
  5
149B
330
406
100
AcDbEntity
  8
2-8工区
  6
Continuous
 62
     7
 48
0.5
100
AcDbLine
 10
7956.465999786471
 20
2155.404845896886
 30
0.0
 11
7976.984810786468
 21
2178.597144896885
 31
0.0
  0
LINE
  5
149C
330
406
100
AcDbEntity
  8
2-8工区
  6
Continuous
 62
     7
 48
0.5
100
AcDbLine
 10
7981.359980786469
 20
2112.912267896884
 30
0.0
 11
7984.559980786468
 21
2112.912267896884
 31
0.0
  0
LINE
  5
149D
330
406
100
AcDbEntity
  8
2-8工区
  6
Continuous
 62
     7
 48
0.5
100
AcDbLine
 10
7981.359980786469
 20
2128.010750896885
 30
0.0
 11
7981.359980786469
 21
2112.912267896884
 31
0.0
  0
LINE
  5
149E
330
406
100
AcDbEntity
  8
2-8工区
  6
Continuous
 62
     7
 48
0.5
100
AcDbLine
 10
7984.559980786468
 20
2131.412450896885
 30
0.0
 11
7984.559980786468
 21
2112.912267896884
 31
0.0
  0
LINE
  5
149F
330
406
100
AcDbEntity
  8
2-8工区
  6
Continuous
 62
     7
 48
0.5
100
AcDbLine
 10
7952.020786786468
 20
2112.912267896884
 30
0.0
 11
7955.220786786468
 21
2112.912267896884
 31
0.0
  0
LINE
  5
14A0
330
406
100
AcDbEntity
  8
2-8工区
  6
Continuous
 62
     7
 48
0.5
100
AcDbLine
 10
7955.220786786468
 20
2126.412008896885
 30
0.0
 11
7955.220786786468
 21
2112.912267896884
 31
0.0
  0
LINE
  5
14A1
330
406
100
AcDbEntity
  8
2-8工区
  6
Continuous
 62
     7
 48
0.5
100
AcDbLine
 10
7952.020786786468
 20
2129.422267896885
 30
0.0
 11
7952.020786786468
 21
2112.912267896884
 31
0.0
  0
LINE
  5
14A2
330
406
100
AcDbEntity
  8
2-8工区
  6
Continuous
 62
     7
 48
0.5
100
AcDbLine
 10
7955.220786786468
 20
2126.412008896885
 30
0.0
 11
7981.359980786469
 21
2128.010750896885
 31
0.0
  0
LINE
  5
14A3
330
406
100
AcDbEntity
  8
2-8工区
  6
Continuous
 62
     7
 48
0.5
100
AcDbLine
 10
7984.559980786468
 20
2131.412450896885
 30
0.0
 11
7952.020786786468
 21
2129.422267896885
 31
0.0
  0
LINE
  5
14A4
330
406
100
AcDbEntity
  8
2-8工区
  6
Continuous
 62
     7
 48
0.5
100
AcDbLine
 10
8057.332110786466
 20
2112.912267896884
 30
0.0
 11
8057.332110786466
 21
2082.912267896884
 31
0.0
  0
LINE
  5
14A5
330
406
100
AcDbEntity
  8
2-8工区
  6
Continuous
 62
     7
 48
0.5
100
AcDbLine
 10
7978.581429786469
 20
2173.607261896885
 30
0.0
 11
7996.556367786467
 21
2157.704381896885
 31
0.0
  0
LINE
  5
14A6
330
406
100
AcDbEntity
  8
2-8工区
  6
Continuous
 62
     7
 48
0.5
100
AcDbLine
 10
7973.28046978647
 20
2167.615615896884
 30
0.0
 11
7991.255407786468
 21
2151.712735896885
 31
0.0
  0
LINE
  5
14A7
330
406
100
AcDbEntity
  8
2-8工区
  6
Continuous
 62
     7
 48
0.5
100
AcDbLine
 10
7992.666983786468
 20
2151.799071896885
 30
0.0
 11
7996.642703786467
 21
2156.292805896886
 31
0.0
  0
LINE
  5
14A8
330
406
100
AcDbEntity
  8
2-8工区
  6
Continuous
 62
     7
 48
0.5
100
AcDbLine
 10
7987.655769786468
 20
2172.922523896885
 30
0.0
 11
7984.011358786467
 21
2168.803266896885
 31
0.0
  0
LINE
  5
14A9
330
406
100
AcDbEntity
  8
2-8工区
  6
Continuous
 62
     7
 48
0.5
100
AcDbLine
 10
7987.655769786468
 20
2172.922523896885
 30
0.0
 11
7994.770848786469
 21
2166.627633896886
 31
0.0
  0
LINE
  5
14AA
330
406
100
AcDbEntity
  8
2-8工区
  6
Continuous
 62
     7
 48
0.5
100
AcDbLine
 10
7998.243121786469
 20
2182.248318896885
 30
0.0
 11
8002.736856786468
 21
2178.272598896885
 31
0.0
  0
LINE
  5
14AB
330
406
100
AcDbEntity
  8
2-8工区
  6
Continuous
 62
     7
 48
0.5
100
AcDbLine
 10
7994.770848786469
 20
2166.627633896886
 30
0.0
 11
7991.126438786469
 21
2162.508376896884
 31
0.0
  0
LINE
  5
14AC
330
406
100
AcDbEntity
  8
2-8工区
  6
Continuous
 62
     7
 48
0.5
100
AcDbLine
 10
7973.194133786468
 20
2169.027191896885
 30
0.0
 11
7977.169854786469
 21
2173.520926896885
 31
0.0
  0
LINE
  5
14AD
330
406
100
AcDbEntity
  8
2-8工区
  6
Continuous
 62
     7
 48
0.5
100
AcDbLine
 10
8002.736856786468
 20
2178.272598896885
 30
0.0
 11
7995.580559786468
 21
2170.183876896885
 31
0.0
  0
LINE
  5
14AE
330
406
100
AcDbEntity
  8
2-8工区
  6
Continuous
 62
     7
 48
0.5
100
AcDbLine
 10
7998.243121786469
 20
2182.248318896885
 30
0.0
 11
7991.086825786467
 21
2174.159596896884
 31
0.0
  0
LINE
  5
14AF
330
406
100
AcDbEntity
  8
2-8工区
  6
Continuous
 62
     7
 48
0.5
100
AcDbLine
 10
7974.49889278647
 20
2189.160625896883
 30
0.0
 11
7969.009151786467
 21
2188.824858896885
 31
0.0
  0
LINE
  5
14B0
330
406
100
AcDbEntity
  8
2-8工区
  6
Continuous
 62
     7
 48
0.5
100
AcDbLine
 10
7987.999653786468
 20
2197.750850896885
 30
0.0
 11
7988.365944786469
 21
2191.762041896885
 31
0.0
  0
LINE
  5
14B1
330
406
100
AcDbEntity
  8
2-8工区
  6
Continuous
 62
     7
 48
0.5
100
AcDbLine
 10
7973.918931786468
 20
2198.642906896885
 30
0.0
 11
7974.49889278647
 21
2189.160625896883
 31
0.0
  0
LINE
  5
14B2
330
406
100
AcDbEntity
  8
2-8工区
  6
Continuous
 62
     7
 48
0.5
100
AcDbLine
 10
7987.999653786468
 20
2197.750850896885
 30
0.0
 11
7977.219797786467
 21
2197.091525896884
 31
0.0
  0
LINE
  5
14B3
330
406
100
AcDbEntity
  8
2-8工区
  6
Continuous
 62
     7
 48
0.5
100
AcDbLine
 10
7988.365944786469
 20
2191.762041896885
 30
0.0
 11
7977.586088786468
 21
2191.102716896885
 31
0.0
  0
LINE
  5
14B4
330
406
100
AcDbEntity
  8
2-8工区
  6
Continuous
 62
     7
 48
0.5
100
AcDbLine
 10
7962.525858786468
 20
2180.162906896885
 30
0.0
 11
7968.514667786466
 21
2180.529197896884
 31
0.0
  0
LINE
  5
14B5
330
406
100
AcDbEntity
  8
2-8工区
  6
Continuous
 62
     7
 48
0.5
100
AcDbLine
 10
7960.905028786469
 20
2190.282832896885
 30
0.0
 11
7961.466674786469
 21
2181.099992896884
 31
0.0
  0
LINE
  5
14B6
330
406
100
AcDbEntity
  8
2-8工区
  6
Continuous
 62
     7
 48
0.5
100
AcDbLine
 10
7968.890106786467
 20
2190.771221896885
 30
0.0
 11
7969.451753786469
 21
2181.588381896884
 31
0.0
  0
LINE
  5
14B7
330
406
100
AcDbEntity
  8
2-8工区
  6
Continuous
 62
     7
 48
0.5
100
AcDbLine
 10
8006.635147786468
 20
2160.403604896886
 30
0.0
 11
8004.514762786469
 21
2158.006946896885
 31
0.0
  0
LINE
  5
14B8
330
406
100
AcDbEntity
  8
2-8工区
  6
Continuous
 62
     7
 48
0.5
100
AcDbLine
 10
8006.635147786468
 20
2160.403604896886
 30
0.0
 11
7977.909311786469
 21
2185.818075896885
 31
0.0
  0
LINE
  5
14B9
330
406
100
AcDbEntity
  8
2-8工区
  6
Continuous
 62
     7
 48
0.5
100
AcDbLine
 10
8004.514762786469
 20
2158.006946896885
 30
0.0
 11
7974.796199786467
 21
2184.299708896885
 31
0.0
  0
LINE
  5
14BA
330
406
100
AcDbEntity
  8
2-8工区
  6
Continuous
 62
     7
 48
0.5
100
AcDbLine
 10
7977.909311786469
 20
2185.818075896885
 30
0.0
 11
7976.169762786469
 21
2214.259444896884
 31
0.0
  0
LINE
  5
14BB
330
406
100
AcDbEntity
  8
2-8工区
  6
Continuous
 62
     7
 48
0.5
100
AcDbLine
 10
7974.796199786467
 20
2184.299708896885
 30
0.0
 11
7973.171086786469
 21
2210.870057896885
 31
0.0
  0
LINE
  5
14BC
330
406
100
AcDbEntity
  8
2-8工区
  6
Continuous
 62
     7
 48
0.5
100
AcDbLine
 10
7954.182087786468
 20
2212.914619896884
 30
0.0
 11
7940.705002786469
 21
2212.090325896884
 31
0.0
  0
LINE
  5
14BD
330
406
100
AcDbEntity
  8
2-8工区
  6
Continuous
 62
     7
 48
0.5
100
AcDbLine
 10
8189.610559786467
 20
2206.061204896885
 30
0.0
 11
8190.670751786468
 21
2207.259534896884
 31
0.0
  0
LINE
  5
14BE
330
406
100
AcDbEntity
  8
2-8工区
  6
Continuous
 62
     7
 48
0.5
100
AcDbLine
 10
8167.141887786469
 20
2225.939805896885
 30
0.0
 11
8163.173730786468
 21
2290.818567896885
 31
0.0
  0
LINE
  5
14BF
330
406
100
AcDbEntity
  8
2-8工区
  6
Continuous
 62
     7
 48
0.5
100
AcDbLine
 10
8167.141887786469
 20
2225.939805896885
 30
0.0
 11
8189.610559786467
 21
2206.061204896885
 31
0.0
  0
LINE
  5
14C0
330
406
100
AcDbEntity
  8
2-8工区
  6
Continuous
 62
     7
 48
0.5
100
AcDbLine
 10
8167.705714786469
 20
2227.577280896885
 30
0.0
 11
8190.670751786468
 21
2207.259534896884
 31
0.0
  0
ARC
  5
14C1
330
406
100
AcDbEntity
  8
2-8工区
  6
Continuous
 62
     7
100
AcDbCircle
 10
7681.86098578647
 20
2161.184174896885
 30
0.0
 40
0.9
100
AcDbArc
 50
170.063
 51
228.5
  0
ARC
  5
14C2
330
406
100
AcDbEntity
  8
2-8工区
  6
Continuous
 62
     7
100
AcDbCircle
 10
7681.86098578647
 20
2161.184174896885
 30
0.0
 40
2.5
100
AcDbArc
 50
137.143
 51
228.5
  0
ARC
  5
14C3
330
406
100
AcDbEntity
  8
2-8工区
  6
Continuous
 62
     7
100
AcDbCircle
 10
7695.363938786468
 20
2164.824443896885
 30
0.0
 40
1.0
100
AcDbArc
 50
273.5
 51
363.5000000000002
  0
ARC
  5
14C4
330
406
100
AcDbEntity
  8
2-8工区
  6
Continuous
 62
     7
100
AcDbCircle
 10
7689.375129786468
 20
2164.458152896886
 30
0.0
 40
1.0
100
AcDbArc
 50
183.5
 51
273.5
  0
ARC
  5
14C5
330
406
100
AcDbEntity
  8
2-8工区
  6
Continuous
 62
     7
100
AcDbCircle
 10
7685.530714786469
 20
2150.724506896884
 30
0.0
 40
1.0
100
AcDbArc
 50
318.5
 51
408.4999999999998
  0
ARC
  5
14C6
330
406
100
AcDbEntity
  8
2-8工区
  6
Continuous
 62
     7
100
AcDbCircle
 10
7681.036979786469
 20
2154.700226896885
 30
0.0
 40
1.0
100
AcDbArc
 50
48.5
 51
138.5
  0
ARC
  5
14C7
330
406
100
AcDbEntity
  8
2-8工区
  6
Continuous
 62
     7
100
AcDbCircle
 10
7669.627833786468
 20
2132.749568896884
 30
0.0
 40
1.0
100
AcDbArc
 50
228.5
 51
318.5
  0
ARC
  5
14C8
330
406
100
AcDbEntity
  8
2-8工区
  6
Continuous
 62
     7
100
AcDbCircle
 10
7665.134099786468
 20
2136.725288896885
 30
0.0
 40
1.0
100
AcDbArc
 50
138.5
 51
228.5
  0
CIRCLE
  5
14C9
330
406
100
AcDbEntity
  8
2-8工区
  6
Continuous
 62
     7
100
AcDbCircle
 10
7713.638952786469
 20
2182.172464896885
 30
0.0
 40
3.1
  0
ARC
  5
14CA
330
406
100
AcDbEntity
  8
2-8工区
  6
Continuous
 62
     7
100
AcDbCircle
 10
7346.063461786468
 20
2230.823249896885
 30
0.0
 40
30.0
100
AcDbArc
 50
207.795
 51
382.971
  0
ARC
  5
14CB
330
406
100
AcDbEntity
  8
2-8工区
  6
Continuous
 62
     7
100
AcDbCircle
 10
7342.834749786469
 20
2235.635116896885
 30
0.0
 40
24.1
100
AcDbArc
 50
93.49999999999999
 51
138.5
  0
ARC
  5
14CC
330
406
100
AcDbEntity
  8
2-8工区
  6
Continuous
 62
     7
100
AcDbCircle
 10
7378.090801786469
 20
2174.022528896885
 30
0.0
 40
3.75
100
AcDbArc
 50
183.5
 51
363.5000000000002
  0
ARC
  5
14CD
330
406
100
AcDbEntity
  8
2-8工区
  6
Continuous
 62
     7
100
AcDbCircle
 10
7378.090801786469
 20
2174.022528896885
 30
0.0
 40
5.349999999999998
100
AcDbArc
 50
183.5
 51
363.5000000000002
  0
ARC
  5
14CE
330
406
100
AcDbEntity
  8
2-8工区
  6
Continuous
 62
     7
100
AcDbCircle
 10
7371.126293786467
 20
2174.047401896885
 30
0.0
 40
1.6
100
AcDbArc
 50
3.5
 51
93.49999999999999
  0
ARC
  5
14CF
330
406
100
AcDbEntity
  8
2-8工区
  6
Continuous
 62
     7
100
AcDbCircle
 10
7385.000366786468
 20
2174.895976896885
 30
0.0
 40
1.6
100
AcDbArc
 50
93.49999999999999
 51
183.5
  0
ARC
  5
14D0
330
406
100
AcDbEntity
  8
2-8工区
  6
Continuous
 62
     7
100
AcDbCircle
 10
7385.000366786468
 20
2174.895976896885
 30
0.0
 40
3.2
100
AcDbArc
 50
93.49999999999999
 51
183.5
  0
ARC
  5
14D1
330
406
100
AcDbEntity
  8
2-8工区
  6
Continuous
 62
     7
100
AcDbCircle
 10
7371.126293786467
 20
2174.047401896885
 30
0.0
 40
3.2
100
AcDbArc
 50
3.5
 51
93.49999999999999
  0
ARC
  5
14D2
330
406
100
AcDbEntity
  8
2-8工区
  6
Continuous
 62
     7
100
AcDbCircle
 10
7378.090801786469
 20
2174.022528896885
 30
0.0
 40
3.5
100
AcDbArc
 50
278.5000000000001
 51
458.4999999999999
  0
ARC
  5
14D3
330
406
100
AcDbEntity
  8
2-8工区
  6
Continuous
 62
     7
100
AcDbCircle
 10
7225.599131786466
 20
2151.232490896885
 30
0.0
 40
3.5
100
AcDbArc
 50
98.50000000000001
 51
278.5000000000001
  0
ARC
  5
14D4
330
406
100
AcDbEntity
  8
2-8工区
  6
Continuous
 62
     7
100
AcDbCircle
 10
8293.612602786469
 20
2123.341395896885
 30
0.0
 40
17.9
100
AcDbArc
 50
186.698
 51
360.301
  0
ARC
  5
14D5
330
406
100
AcDbEntity
  8
2-8工区
  6
Continuous
 62
     7
100
AcDbCircle
 10
8293.612602786469
 20
2123.341395896885
 30
0.0
 40
10.9
100
AcDbArc
 50
205.895
 51
341.104
  0
ARC
  5
14D6
330
406
100
AcDbEntity
  8
2-8工区
  6
Continuous
 62
     7
100
AcDbCircle
 10
8435.847039786469
 20
2317.063836896885
 30
0.0
 40
9.55
100
AcDbArc
 50
273.5
 51
453.5
  0
ARC
  5
14D7
330
406
100
AcDbEntity
  8
2-8工区
  6
Continuous
 62
     7
100
AcDbCircle
 10
7976.310750786467
 20
2179.193502896886
 30
0.0
 40
2.5
100
AcDbArc
 50
318.5
 51
409.8569999999999
  0
ARC
  5
14D8
330
406
100
AcDbEntity
  8
2-8工区
  6
Continuous
 62
     7
100
AcDbCircle
 10
7976.310750786467
 20
2179.193502896886
 30
0.0
 40
0.9
100
AcDbArc
 50
318.5
 51
376.9369999999999
  0
ARC
  5
14D9
330
406
100
AcDbEntity
  8
2-8工区
  6
Continuous
 62
     7
100
AcDbCircle
 10
7991.91802778647
 20
2152.461691896885
 30
0.0
 40
1.0
100
AcDbArc
 50
228.5
 51
318.5
  0
ARC
  5
14DA
330
406
100
AcDbEntity
  8
2-8工区
  6
Continuous
 62
     7
100
AcDbCircle
 10
7995.893747786467
 20
2156.955425896885
 30
0.0
 40
1.0
100
AcDbArc
 50
318.5
 51
408.4999999999998
  0
ARC
  5
14DB
330
406
100
AcDbEntity
  8
2-8工区
  6
Continuous
 62
     7
100
AcDbCircle
 10
7973.94308978647
 20
2168.364571896885
 30
0.0
 40
1.0
100
AcDbArc
 50
138.5
 51
228.5
  0
ARC
  5
14DC
330
406
100
AcDbEntity
  8
2-8工区
  6
Continuous
 62
     7
100
AcDbCircle
 10
7977.918809786467
 20
2172.858306896886
 30
0.0
 40
1.0
100
AcDbArc
 50
48.5
 51
138.5
  0
ARC
  5
14DD
330
406
100
AcDbEntity
  8
2-8工区
  6
Continuous
 62
     7
100
AcDbCircle
 10
7968.453618786469
 20
2181.527332896884
 30
0.0
 40
1.0
100
AcDbArc
 50
273.5
 51
363.5000000000002
  0
ARC
  5
14DE
330
406
100
AcDbEntity
  8
2-8工区
  6
Continuous
 62
     7
100
AcDbCircle
 10
7962.464809786467
 20
2181.161041896885
 30
0.0
 40
1.0
100
AcDbArc
 50
183.5
 51
273.5
  0
LINE
  5
14DF
330
406
100
AcDbEntity
  8
2-43THIN
  6
Continuous
 62
     4
 48
0.5
100
AcDbLine
 10
7668.030695786467
 20
2177.638188896885
 30
0.0
 11
7678.810551786469
 21
2178.297512896884
 31
0.0
  0
LINE
  5
14E0
330
406
100
AcDbEntity
  8
2-43THIN
  6
Continuous
 62
     4
 48
0.5
100
AcDbLine
 10
7668.330871786469
 20
2172.730359896885
 30
0.0
 11
7679.110726786468
 21
2173.389684896886
 31
0.0
  0
LINE
  5
14E1
330
406
100
AcDbEntity
  8
2-43THIN
  6
Continuous
 62
     4
 48
0.5
100
AcDbLine
 10
7659.360998786468
 20
2161.137775896885
 30
0.0
 11
7667.449720786469
 21
2153.981479896884
 31
0.0
  0
LINE
  5
14E2
330
406
100
AcDbEntity
  8
2-43THIN
  6
Continuous
 62
     4
 48
0.5
100
AcDbLine
 10
7656.102895786467
 20
2157.455160896883
 30
0.0
 11
7664.191617786467
 21
2150.298863896886
 31
0.0
  0
LINE
  5
14E3
330
406
100
AcDbEntity
  8
2-43THIN
  6
Continuous
 62
     4
 48
0.5
100
AcDbLine
 10
8002.331296786469
 20
2178.631407896885
 30
0.0
 11
7995.175000786467
 21
2170.542685896885
 31
0.0
  0
LINE
  5
14E4
330
406
100
AcDbEntity
  8
2-43THIN
  6
Continuous
 62
     4
 48
0.5
100
AcDbLine
 10
7998.648681786469
 20
2181.889509896885
 30
0.0
 11
7991.492385786469
 21
2173.800787896885
 31
0.0
  0
LINE
  5
14E5
330
406
100
AcDbEntity
  8
2-43THIN
  6
Continuous
 62
     4
 48
0.5
100
AcDbLine
 10
7988.03271178647
 20
2197.210360896884
 30
0.0
 11
7977.252855786467
 21
2196.551035896885
 31
0.0
  0
LINE
  5
14E6
330
406
100
AcDbEntity
  8
2-43THIN
  6
Continuous
 62
     4
 48
0.5
100
AcDbLine
 10
7988.332886786469
 20
2192.302531896885
 30
0.0
 11
7977.553031786469
 21
2191.643206896885
 31
0.0
  0
LWPOLYLINE
  5
14E7
330
406
100
AcDbEntity
  8
2-8工区
  6
Continuous
 62
     7
100
AcDbPolyline
 90
        3
 70
     0
 43
0.0
 10
6617.907092838528
 20
2082.912267896884
 10
8502.332110786468
 20
2082.912267896884
 10
8502.332110786468
 20
4038.107652272261
  0
LWPOLYLINE
  5
14EC
330
406
100
AcDbEntity
  8
2-53DIM
  6
Continuous
 62
     3
100
AcDbPolyline
 90
        2
 70
     1
 43
8.0
 10
7603.331999999999
 20
1730.155
 42
1.0
 10
7611.332
 20
1730.155
 42
1.0
  0
LWPOLYLINE
  5
14F0
330
406
100
AcDbEntity
  8
2-53DIM
  6
Continuous
 62
     3
100
AcDbPolyline
 90
        2
 70
     1
 43
8.0
 10
8053.332000000002
 20
1730.155
 42
1.0
 10
8061.332
 20
1730.155
 42
1.0
  0
LINE
  5
14F4
330
406
100
AcDbEntity
  8
2-53DIM
  6
Continuous
 62
     3
 48
0.5
100
AcDbLine
 10
7607.332110786467
 20
1710.154707942311
 30
0.0
 11
7607.332110786467
 21
2062.912267896884
 31
0.0
  0
LINE
  5
14F5
330
406
100
AcDbEntity
  8
2-53DIM
  6
Continuous
 62
     3
 48
0.5
100
AcDbLine
 10
8057.332110786466
 20
1710.154707942311
 30
0.0
 11
8057.332110786466
 21
2062.912267896884
 31
0.0
  0
LINE
  5
14F6
330
406
100
AcDbEntity
  8
2-53DIM
  6
Continuous
 62
     3
 48
0.5
100
AcDbLine
 10
7607.332110786467
 20
1730.154707942311
 30
0.0
 11
8057.332110786466
 21
1730.154707942311
 31
0.0
  0
TEXT
  5
14F7
330
406
100
AcDbEntity
  8
2-53DIM
 62
     3
370
    -3
100
AcDbText
 10
7777.77995
 20
1750.155
 30
0.0
 40
71.06
  1
450
 41
0.7140000000000001
 72
     1
 11
7841.200999999999
 21
1750.155
 31
0.0
100
AcDbText
 73
     1
  0
LWPOLYLINE
  5
14F8
330
406
100
AcDbEntity
  8
2-53DIM
  6
Continuous
 62
     3
100
AcDbPolyline
 90
        2
 70
     1
 43
8.0
 10
8498.332000000001
 20
1590.155
 42
1.0
 10
8506.332
 20
1590.155
 42
1.0
  0
LWPOLYLINE
  5
14FC
330
406
100
AcDbEntity
  8
2-53DIM
  6
Continuous
 62
     3
100
AcDbPolyline
 90
        2
 70
     1
 43
8.0
 10
7828.331999999999
 20
1590.155
 42
1.0
 10
7836.332
 20
1590.155
 42
1.0
  0
LINE
  5
1500
330
406
100
AcDbEntity
  8
2-53DIM
  6
Continuous
 62
     3
 48
0.5
100
AcDbLine
 10
8502.332110786468
 20
1570.154707942311
 30
0.0
 11
8502.332110786468
 21
2062.912267896884
 31
0.0
  0
LINE
  5
1501
330
406
100
AcDbEntity
  8
2-53DIM
  6
Continuous
 62
     3
 48
0.5
100
AcDbLine
 10
7832.332110786467
 20
1570.154707942311
 30
0.0
 11
7832.332110786467
 21
2049.323726896885
 31
0.0
  0
LINE
  5
1502
330
406
100
AcDbEntity
  8
2-53DIM
  6
Continuous
 62
     3
 48
0.5
100
AcDbLine
 10
8502.332110786468
 20
1590.154707942311
 30
0.0
 11
7832.332110786467
 21
1590.154707942311
 31
0.0
  0
TEXT
  5
1503
330
406
100
AcDbEntity
  8
2-53DIM
 62
     3
370
    -3
100
AcDbText
 10
8112.779950000001
 20
1610.155
 30
0.0
 40
71.06
  1
670
 41
0.7140000000000001
 72
     1
 11
8176.201
 21
1610.155
 31
0.0
100
AcDbText
 73
     1
  0
LWPOLYLINE
  5
1504
330
406
100
AcDbEntity
  8
2-53DIM
  6
Continuous
 62
     3
100
AcDbPolyline
 90
        2
 70
     1
 43
8.0
 10
8446.332000000001
 20
3617.827000000001
 42
1.0
 10
8454.332
 20
3617.827000000001
 42
1.0
  0
LWPOLYLINE
  5
1508
330
406
100
AcDbEntity
  8
2-53DIM
  6
Continuous
 62
     3
100
AcDbPolyline
 90
        2
 70
     1
 43
8.0
 10
7828.331999999999
 20
3617.827000000001
 42
1.0
 10
7836.332
 20
3617.827000000001
 42
1.0
  0
LINE
  5
150C
330
406
100
AcDbEntity
  8
2-53DIM
  6
Continuous
 62
     3
 48
0.5
100
AcDbLine
 10
8450.332110786469
 20
3637.826772655545
 30
0.0
 11
8450.332110786469
 21
2412.479986116212
 31
0.0
  0
LINE
  5
150D
330
406
100
AcDbEntity
  8
2-53DIM
  6
Continuous
 62
     3
 48
0.5
100
AcDbLine
 10
7832.332110786467
 20
3637.826772655545
 30
0.0
 11
7832.332110786467
 21
2148.275949896884
 31
0.0
  0
LINE
  5
150E
330
406
100
AcDbEntity
  8
2-53DIM
  6
Continuous
 62
     3
 48
0.5
100
AcDbLine
 10
8450.332110786469
 20
3617.826772655547
 30
0.0
 11
7832.332110786467
 21
3617.826772655547
 31
0.0
  0
TEXT
  5
150F
330
406
100
AcDbEntity
  8
2-53DIM
 62
     3
370
    -3
100
AcDbText
 10
8088.189306666668
 20
3637.827
 30
0.0
 40
71.06
  1
618
 41
0.7480000000000002
 72
     1
 11
8150.201
 21
3637.827
 31
0.0
100
AcDbText
 73
     1
  0
LWPOLYLINE
  5
1510
330
406
100
AcDbEntity
  8
2-53DIM
  6
Continuous
 62
     3
100
AcDbPolyline
 90
        2
 70
     1
 43
8.0
 10
7223.331999999999
 20
3617.827000000001
 42
1.0
 10
7231.331999999999
 20
3617.827000000001
 42
1.0
  0
LINE
  5
1514
330
406
100
AcDbEntity
  8
2-53DIM
  6
Continuous
 62
     3
 48
0.5
100
AcDbLine
 10
7227.332110786467
 20
3637.826772655545
 30
0.0
 11
7227.332110786467
 21
2175.030357429058
 31
0.0
  0
LINE
  5
1515
330
406
100
AcDbEntity
  8
2-53DIM
  6
Continuous
 62
     3
 48
0.5
100
AcDbLine
 10
7832.332110786467
 20
3617.826772655547
 30
0.0
 11
7227.332110786467
 21
3617.826772655547
 31
0.0
  0
TEXT
  5
1516
330
406
100
AcDbEntity
  8
2-53DIM
 62
     3
370
    -3
100
AcDbText
 10
7477.05645
 20
3637.827
 30
0.0
 40
71.06
  1
605
 41
0.6940000000000001
 72
     1
 11
7538.701
 21
3637.827
 31
0.0
100
AcDbText
 73
     1
  0
LWPOLYLINE
  5
1517
330
406
100
AcDbEntity
  8
2-53DIM
  6
Continuous
 62
     3
100
AcDbPolyline
 90
        2
 70
     1
 43
8.0
 10
8498.332000000001
 20
3757.827000000001
 42
1.0
 10
8506.332
 20
3757.827000000001
 42
1.0
  0
LWPOLYLINE
  5
151B
330
406
100
AcDbEntity
  8
2-53DIM
  6
Continuous
 62
     3
100
AcDbPolyline
 90
        2
 70
     1
 43
8.0
 10
8446.332000000001
 20
3757.827000000001
 42
1.0
 10
8454.332
 20
3757.827000000001
 42
1.0
  0
LINE
  5
151F
330
406
100
AcDbEntity
  8
2-53DIM
  6
Continuous
 62
     3
 48
0.5
100
AcDbLine
 10
8450.332110786469
 20
3777.826772655545
 30
0.0
 11
8450.332110786469
 21
3637.826772655545
 31
0.0
  0
LWPOLYLINE
  5
1520
330
406
100
AcDbEntity
  8
2-53DIM
  6
Continuous
 62
     3
100
AcDbPolyline
 90
        2
 70
     1
 43
8.0
 10
7223.331999999999
 20
3757.827000000001
 42
1.0
 10
7231.331999999999
 20
3757.827000000001
 42
1.0
  0
LINE
  5
1524
330
406
100
AcDbEntity
  8
2-53DIM
  6
Continuous
 62
     3
 48
0.5
100
AcDbLine
 10
7227.332110786467
 20
3777.826772655545
 30
0.0
 11
7227.332110786467
 21
3637.826772655545
 31
0.0
  0
LINE
  5
1525
330
406
100
AcDbEntity
  8
2-53DIM
  6
Continuous
 62
     3
 48
0.5
100
AcDbLine
 10
8450.332110786469
 20
3757.826772655545
 30
0.0
 11
7227.332110786467
 21
3757.826772655545
 31
0.0
  0
TEXT
  5
1526
330
406
100
AcDbEntity
  8
2-53DIM
 62
     3
370
    -3
100
AcDbText
 10
7766.9157
 20
3777.827000000002
 30
0.0
 40
71.06
  1
1223
 41
0.693
 72
     1
 11
7848.99
 21
3777.827000000002
 31
0.0
100
AcDbText
 73
     1
  0
LWPOLYLINE
  5
1527
330
406
100
AcDbEntity
  8
2-53DIM
  6
Continuous
 62
     3
100
AcDbPolyline
 90
        2
 70
     1
 43
8.0
 10
6974.332000000001
 20
3757.827000000001
 42
1.0
 10
6982.332000000001
 20
3757.827000000001
 42
1.0
  0
LINE
  5
152B
330
406
100
AcDbEntity
  8
2-53DIM
  6
Continuous
 62
     3
 48
0.5
100
AcDbLine
 10
7227.332110786467
 20
3757.826772655545
 30
0.0
 11
6978.332110786467
 21
3757.826772655545
 31
0.0
  0
TEXT
  5
152C
330
406
100
AcDbEntity
  8
2-53DIM
 62
     3
370
    -3
100
AcDbText
 10
7048.789213333333
 20
3777.827000000002
 30
0.0
 40
71.06
  1
249
 41
0.6640000000000002
 72
     1
 11
7111.701
 21
3777.827000000002
 31
0.0
100
AcDbText
 73
     1
  0
LINE
  5
152D
330
406
100
AcDbEntity
  8
2-53DIM
  6
Continuous
 62
     3
 48
0.5
100
AcDbLine
 10
6978.332110786467
 20
3777.826772655545
 30
0.0
 11
6978.332110786467
 21
2555.455601661047
 31
0.0
  0
LWPOLYLINE
  5
152E
330
406
100
AcDbEntity
  8
2-53DIM
  6
Continuous
 62
     3
100
AcDbPolyline
 90
        2
 70
     1
 43
8.0
 10
8498.332000000001
 20
3897.827
 42
1.0
 10
8506.332
 20
3897.827
 42
1.0
  0
LWPOLYLINE
  5
1532
330
406
100
AcDbEntity
  8
2-53DIM
  6
Continuous
 62
     3
100
AcDbPolyline
 90
        2
 70
     1
 43
8.0
 10
6974.332000000001
 20
3897.827
 42
1.0
 10
6982.332000000001
 20
3897.827
 42
1.0
  0
LINE
  5
1536
330
406
100
AcDbEntity
  8
2-53DIM
  6
Continuous
 62
     3
 48
0.5
100
AcDbLine
 10
6978.332110786467
 20
3917.826773071839
 30
0.0
 11
6978.332110786467
 21
3777.826772655545
 31
0.0
  0
LINE
  5
1537
330
406
100
AcDbEntity
  8
2-53DIM
  6
Continuous
 62
     3
 48
0.5
100
AcDbLine
 10
8502.332110786468
 20
3897.82677307184
 30
0.0
 11
6978.332110786467
 21
3897.82677307184
 31
0.0
  0
TEXT
  5
1538
330
406
100
AcDbEntity
  8
2-53DIM
 62
     3
370
    -3
100
AcDbText
 10
7665.099566666667
 20
3917.827000000001
 30
0.0
 40
71.06
  1
1524
 41
0.721
 72
     1
 11
7750.49
 21
3917.827000000001
 31
0.0
100
AcDbText
 73
     1
  0
TEXT
  5
1539
330
406
100
AcDbEntity
  8
2-03BODL
 62
     3
370
    -3
100
AcDbText
 10
7207.479562000002
 20
1270.155
 30
0.0
 40
106.59
  1
側面図　Ｓ＝１／２０
 41
0.9019999999999999
 72
     1
 11
7761.911000000001
 21
1270.155
 31
0.0
100
AcDbText
 73
     1
  0
LINE
  5
153A
330
406
100
AcDbEntity
  8
2-03BODL
  6
Continuous
 62
     3
 48
0.5
100
AcDbLine
 10
8361.91114648825
 20
1250.154707942311
 30
0.0
 11
7161.911146488252
 21
1250.154707942311
 31
0.0
  0
LWPOLYLINE
  5
153B
330
406
100
AcDbEntity
  8
2-03BODL
  6
Continuous
 62
     3
100
AcDbPolyline
 90
        2
 70
     1
 43
8.0
 10
8862.334999999999
 20
2082.912
 42
1.0
 10
8870.334999999997
 20
2082.912
 42
1.0
  0
LINE
  5
153F
330
406
100
AcDbEntity
  8
2-03BODL
  6
Continuous
 62
     3
 48
0.5
100
AcDbLine
 10
9166.334881485715
 20
2082.912267896884
 30
0.0
 11
8522.332110685718
 21
2082.912267896884
 31
0.0
  0
LWPOLYLINE
  5
1540
330
406
100
AcDbEntity
  8
2-03BODL
  6
Continuous
 62
     3
100
AcDbPolyline
 90
        2
 70
     1
 43
8.0
 10
9002.335
 20
2082.912
 42
1.0
 10
9010.334999999999
 20
2082.912
 42
1.0
  0
LWPOLYLINE
  5
1544
330
406
100
AcDbEntity
  8
2-03BODL
  6
Continuous
 62
     3
100
AcDbPolyline
 90
        2
 70
     1
 43
8.0
 10
9142.335
 20
2082.912
 42
1.0
 10
9150.335
 20
2082.912
 42
1.0
  0
LINE
  5
1548
330
406
100
AcDbEntity
  8
2-03BODL
  6
Continuous
 62
     3
 48
0.5
100
AcDbLine
 10
8866.334881490796
 20
2082.912267896884
 30
0.0
 11
8866.334881490796
 21
2052.921616018085
 31
0.0
  0
LWPOLYLINE
  5
1549
330
406
100
AcDbEntity
  8
2-53DIM
  6
Continuous
 62
     3
100
AcDbPolyline
 90
        2
 70
     1
 43
8.0
 10
6793.944999999999
 20
2082.912
 42
1.0
 10
6801.944999999999
 20
2082.912
 42
1.0
  0
LWPOLYLINE
  5
154D
330
406
100
AcDbEntity
  8
2-53DIM
  6
Continuous
 62
     3
100
AcDbPolyline
 90
        2
 70
     1
 43
8.0
 10
6793.944999999999
 20
2144.912000000001
 42
1.0
 10
6801.944999999999
 20
2144.912000000001
 42
1.0
  0
LINE
  5
1551
330
406
100
AcDbEntity
  8
2-53DIM
  6
Continuous
 62
     3
 48
0.5
100
AcDbLine
 10
6777.945222150825
 20
2144.912267896884
 30
0.0
 11
7235.660687645055
 21
2144.912267896884
 31
0.0
  0
LWPOLYLINE
  5
1552
330
406
100
AcDbEntity
  8
2-53DIM
  6
Continuous
 62
     3
100
AcDbPolyline
 90
        2
 70
     1
 43
8.0
 10
8862.334999999999
 20
2082.912
 42
1.0
 10
8870.334999999997
 20
2082.912
 42
1.0
  0
LWPOLYLINE
  5
1556
330
406
100
AcDbEntity
  8
2-53DIM
  6
Continuous
 62
     3
100
AcDbPolyline
 90
        2
 70
     1
 43
8.0
 10
8862.334999999999
 20
2105.912
 42
1.0
 10
8870.334999999997
 20
2105.912
 42
1.0
  0
LINE
  5
155A
330
406
100
AcDbEntity
  8
2-53DIM
  6
Continuous
 62
     3
 48
0.5
100
AcDbLine
 10
8886.334881490796
 20
2105.912267896884
 30
0.0
 11
8317.691266435213
 21
2105.912267896884
 31
0.0
  0
LWPOLYLINE
  5
155B
330
406
100
AcDbEntity
  8
2-53DIM
  6
Continuous
 62
     3
100
AcDbPolyline
 90
        2
 70
     1
 43
8.0
 10
9002.335
 20
2082.912
 42
1.0
 10
9010.334999999999
 20
2082.912
 42
1.0
  0
LWPOLYLINE
  5
155F
330
406
100
AcDbEntity
  8
2-53DIM
  6
Continuous
 62
     3
100
AcDbPolyline
 90
        2
 70
     1
 43
8.0
 10
9002.335
 20
2326.912
 42
1.0
 10
9010.334999999999
 20
2326.912
 42
1.0
  0
LINE
  5
1563
330
406
100
AcDbEntity
  8
2-53DIM
  6
Continuous
 62
     3
 48
0.5
100
AcDbLine
 10
9026.334881490797
 20
2326.912267896884
 30
0.0
 11
8455.11046019379
 21
2326.912267896884
 31
0.0
  0
LINE
  5
1564
330
406
100
AcDbEntity
  8
2-53DIM
  6
Continuous
 62
     3
 48
0.5
100
AcDbLine
 10
9006.334881490797
 20
2082.912267655543
 30
0.0
 11
9006.334881490797
 21
2326.912267896884
 31
0.0
  0
TEXT
  5
1565
330
406
100
AcDbEntity
  8
2-53DIM
 62
     3
370
    -3
100
AcDbText
 10
8986.335
 20
2150.869213333333
 30
0.0
 40
71.06
  1
244
 50
90.0
 41
0.6640000000000002
 72
     1
 11
8986.335
 21
2213.781
 31
0.0
100
AcDbText
 73
     1
  0
LWPOLYLINE
  5
1566
330
406
100
AcDbEntity
  8
2-53DIM
  6
Continuous
 62
     3
100
AcDbPolyline
 90
        2
 70
     1
 43
8.0
 10
9142.335
 20
2082.912
 42
1.0
 10
9150.335
 20
2082.912
 42
1.0
  0
LWPOLYLINE
  5
156A
330
406
100
AcDbEntity
  8
2-53DIM
  6
Continuous
 62
     3
100
AcDbPolyline
 90
        2
 70
     1
 43
8.0
 10
9142.335
 20
3269.912
 42
1.0
 10
9150.335
 20
3269.912
 42
1.0
  0
LINE
  5
156E
330
406
100
AcDbEntity
  8
2-53DIM
  6
Continuous
 62
     3
 48
0.5
100
AcDbLine
 10
9146.334881485717
 20
2082.912267896884
 30
0.0
 11
9146.334881485717
 21
3269.912267896884
 31
0.0
  0
TEXT
  5
156F
330
406
100
AcDbEntity
  8
2-53DIM
 62
     3
370
    -3
100
AcDbText
 10
9126.334999999999
 20
2597.887120000001
 30
0.0
 40
71.06
  1
1187
 50
90.0
 41
0.832
 72
     1
 11
9126.334999999999
 21
2686.570000000001
 31
0.0
100
AcDbText
 73
     1
  0
LINE
  5
1570
330
406
100
AcDbEntity
  8
2-53DIM
  6
Continuous
 62
     3
 48
0.5
100
AcDbLine
 10
9166.334881485715
 20
3269.912267896884
 30
0.0
 11
8206.777614554814
 21
3269.912267896884
 31
0.0
  0
LINE
  5
1571
330
406
100
AcDbEntity
  8
2-53DIM
  6
Continuous
 62
     3
 48
0.5
100
AcDbLine
 10
8866.334881490796
 20
2082.912267896884
 30
0.0
 11
8866.334881490796
 21
2105.912267896884
 31
0.0
  0
TEXT
  5
1572
330
406
100
AcDbEntity
  8
2-53DIM
 62
     3
370
    -3
100
AcDbText
 10
8846.334999999999
 20
2140.302933333333
 30
0.0
 40
71.06
  1
23
 50
90.0
 41
0.6280000000000002
 72
     1
 11
8846.334999999999
 21
2177.491
 31
0.0
100
AcDbText
 73
     1
  0
LINE
  5
1573
330
406
100
AcDbEntity
  8
2-53DIM
  6
Continuous
 62
     3
 48
0.5
100
AcDbLine
 10
6797.945222150826
 20
2082.912267896884
 30
0.0
 11
6797.945222150826
 21
2144.912267896884
 31
0.0
  0
TEXT
  5
1574
330
406
100
AcDbEntity
  8
2-53DIM
 62
     3
370
    -3
100
AcDbText
 10
6777.944999999998
 20
2179.71745
 30
0.0
 40
71.06
  1
62
 50
90.0
 41
0.621
 72
     1
 11
6777.944999999998
 21
2216.491
 31
0.0
100
AcDbText
 73
     1
  0
LINE
  5
1575
330
406
100
AcDbEntity
  8
2-53DIM
  6
Continuous
 62
     3
 48
0.5
100
AcDbLine
 10
6797.945222150826
 20
2082.912267896884
 30
0.0
 11
6797.945222150826
 21
2056.442349376707
 31
0.0
  0
LINE
  5
1576
330
406
100
AcDbEntity
  8
2-53DIM
  6
Continuous
 62
     3
 48
0.5
100
AcDbLine
 10
6797.945222150826
 20
2144.912267896884
 30
0.0
 11
6797.945222150826
 21
2252.912267896884
 31
0.0
  0
LINE
  5
1577
330
406
100
AcDbEntity
  8
2-53DIM
  6
Continuous
 62
     3
 48
0.5
100
AcDbLine
 10
8866.334881490796
 20
2105.912267896884
 30
0.0
 11
8866.334881490796
 21
2213.912267896884
 31
0.0
  0
LINE
  5
1578
330
406
100
AcDbEntity
  8
2-53DIM
  6
Continuous
 62
     3
 48
0.5
100
AcDbLine
 10
8502.332110786468
 20
3757.826772655545
 30
0.0
 11
8615.725657746517
 21
3757.826772655545
 31
0.0
  0
LINE
  5
1579
330
406
100
AcDbEntity
  8
2-53DIM
  6
Continuous
 62
     3
 48
0.5
100
AcDbLine
 10
8502.332110786468
 20
3757.826772655545
 30
0.0
 11
8450.332110786469
 21
3757.826772655545
 31
0.0
  0
TEXT
  5
157A
330
406
100
AcDbEntity
  8
2-53DIM
 62
     3
370
    -3
100
AcDbText
 10
8537.255883333333
 20
3777.827000000002
 30
0.0
 40
71.06
  1
52
 41
0.619
 72
     1
 11
8573.911
 21
3777.827000000002
 31
0.0
100
AcDbText
 73
     1
  0
LINE
  5
157B
330
406
100
AcDbEntity
  8
2-53DIM
  6
Continuous
 62
     3
 48
0.5
100
AcDbLine
 10
9260.744054671974
 20
6691.269299183613
 30
0.0
 11
9260.744054671974
 21
6799.269299183612
 31
0.0
  0
LINE
  5
157C
330
406
100
AcDbEntity
  8
2-53DIM
  6
Continuous
 62
     3
 48
0.5
100
AcDbLine
 10
8910.744054671974
 20
7041.269299183612
 30
0.0
 11
9018.744054671977
 21
7041.269299183612
 31
0.0
  0
LINE
  5
157D
330
406
100
AcDbEntity
  8
2-53DIM
  6
Continuous
 62
     3
 48
0.5
100
AcDbLine
 10
2450.744054787393
 20
7041.269299183615
 30
0.0
 11
2342.744054787394
 21
7041.269299183615
 31
0.0
  0
LINE
  5
157E
330
406
100
AcDbEntity
  8
2-53DIM
  6
Continuous
 62
     3
 48
0.5
100
AcDbLine
 10
2100.744054787393
 20
6691.269299183615
 30
0.0
 11
2100.744054787393
 21
6799.269299183615
 31
0.0
  0
LINE
  5
157F
330
406
100
AcDbEntity
  8
2-53DIM
  6
Continuous
 62
     3
 48
0.5
100
AcDbLine
 10
3160.744054787393
 20
4827.269299183615
 30
0.0
 11
3317.744054787393
 21
4827.269299183615
 31
0.0
  0
LINE
  5
1580
330
406
100
AcDbEntity
  8
2-53DIM
  6
Continuous
 62
     3
 48
0.5
100
AcDbLine
 10
8310.744054671976
 20
4827.269299183615
 30
0.0
 11
8153.744054671973
 21
4827.269299183615
 31
0.0
  0
TEXT
  5
1581
330
406
100
AcDbEntity
  8
0-F1TEXT
 62
     3
370
    -3
100
AcDbText
 10
10795.71711125
 20
631.3434999999998
 30
0.0
 40
53.295
  1
2019-04-01
 41
0.637
 72
     1
 11
10940.0
 21
657.9909999999999
 31
0.0
100
AcDbText
 73
     2
  0
LINE
  5
1582
330
406
100
AcDbEntity
  8
F-E_J_ADD
  6
HIDDEN
 62
     7
100
AcDbLine
 10
8291.62553976295
 20
2447.079822867133
 30
0.0
 11
8245.339262369515
 21
2070.108344913661
 31
0.0
  0
LINE
  5
1583
330
406
100
AcDbEntity
  8
2-7搬入用開口
  6
PHANTOM2
 62
     2
 48
0.5
100
AcDbLine
 10
8286.341553645623
 20
2443.465434543672
 30
0.0
 11
8109.151386063309
 21
2404.434228779792
 31
0.0
  0
LINE
  5
1584
330
406
100
AcDbEntity
  8
2-7搬入用開口
  6
PHANTOM2
 62
     2
 48
0.5
100
AcDbLine
 10
8290.730134113148
 20
2437.319693923623
 30
0.0
 11
8286.903624864532
 21
2442.202086607116
 31
0.0
  0
LINE
  5
1585
330
406
100
AcDbEntity
  8
2-7搬入用開口
  6
PHANTOM2
 62
     2
 48
0.5
100
AcDbLine
 10
8295.451839365718
 20
2442.19895058225
 30
0.0
 11
8290.730134113148
 21
2437.319693923623
 31
0.0
  0
LINE
  5
1586
330
406
100
AcDbEntity
  8
2-7搬入用開口
  6
PHANTOM2
 62
     2
 48
0.5
100
AcDbLine
 10
8296.347828300044
 20
2451.958382235223
 30
0.0
 11
8295.451839365718
 21
2442.19895058225
 31
0.0
  0
LINE
  5
1587
330
406
100
AcDbEntity
  8
2-7搬入用開口
  6
PHANTOM2
 62
     2
 48
0.5
100
AcDbLine
 10
8292.522247721878
 20
2456.840035703945
 30
0.0
 11
8296.347828300044
 21
2451.958382235223
 31
0.0
  0
LINE
  5
1588
330
406
100
AcDbEntity
  8
2-7搬入用開口
  6
PHANTOM2
 62
     2
 48
0.5
100
AcDbLine
 10
8287.801176291162
 20
2451.962256819696
 30
0.0
 11
8292.522247721878
 21
2456.840035703945
 31
0.0
  0
LINE
  5
1589
330
406
100
AcDbEntity
  8
2-7搬入用開口
  6
PHANTOM2
 62
     2
 48
0.5
100
AcDbLine
 10
8286.903624864532
 20
2442.202086607116
 30
0.0
 11
8287.801176291162
 21
2451.962256819696
 31
0.0
  0
LINE
  5
158A
330
406
100
AcDbEntity
  8
2-7搬入用開口
  6
PHANTOM2
 62
     2
 48
0.5
100
AcDbLine
 10
8280.334093329598
 20
2442.141503951674
 30
0.0
 11
8281.484126309312
 21
2441.133366055607
 31
0.0
  0
LINE
  5
158B
330
406
100
AcDbEntity
  8
2-7搬入用開口
  6
PHANTOM2
 62
     2
 48
0.5
100
AcDbLine
 10
8278.864206377621
 20
2448.427578816654
 30
0.0
 11
8276.163040199259
 21
2460.391601288185
 31
0.0
  0
LINE
  5
158C
330
406
100
AcDbEntity
  8
2-7搬入用開口
  6
PHANTOM2
 62
     2
 48
0.5
100
AcDbLine
 10
8323.288341347668
 20
2832.818811911493
 30
0.0
 11
8293.687714445388
 21
2457.280001034071
 31
0.0
  0
LINE
  5
158D
330
406
100
AcDbEntity
  8
2-7搬入用開口
  6
PHANTOM2
 62
     2
 48
0.5
100
AcDbLine
 10
8291.162462846692
 20
2457.154023053312
 30
0.0
 11
8320.763136648986
 21
2832.693343193492
 31
0.0
  0
LINE
  5
158E
330
406
100
AcDbEntity
  8
2-7搬入用開口
  6
PHANTOM2
 62
     2
 48
0.5
100
AcDbLine
 10
8302.043462418607
 20
2449.475437604699
 30
0.0
 11
8292.313717260693
 21
2427.378802783781
 31
0.0
  0
LINE
  5
158F
330
406
100
AcDbEntity
  8
2-7搬入用開口
  6
PHANTOM2
 62
     2
 48
0.5
100
AcDbLine
 10
8109.321099012706
 20
2409.373440524654
 30
0.0
 11
8286.511259227991
 21
2448.404649611229
 31
0.0
  0
LINE
  5
1590
330
406
100
AcDbEntity
  8
2-7搬入用開口
  6
PHANTOM2
 62
     2
 48
0.5
100
AcDbLine
 10
8228.950136712766
 20
2625.273119413072
 30
0.0
 11
8212.295990058603
 21
2776.154866931188
 31
0.0
  0
LWPOLYLINE
  5
1591
330
406
100
AcDbEntity
  8
2-7搬入用開口
  6
PHANTOM2
 62
     2
100
AcDbPolyline
 90
        4
 70
     0
 43
0.0
 10
8208.031315474112
 20
2778.003014617176
 10
8248.091766558536
 20
2807.53217303641
 10
8247.582109042205
 20
2812.148728935119
 10
8207.522588404707
 20
2782.618841732569
  0
LINE
  5
1597
330
406
100
AcDbEntity
  8
2-7搬入用開口
  6
PHANTOM2
 62
     2
 48
0.5
100
AcDbLine
 10
8206.502492075847
 20
2791.854138968687
 30
0.0
 11
8208.540536334416
 21
2773.387217626321
 31
0.0
  0
LINE
  5
1598
330
406
100
AcDbEntity
  8
2-7搬入用開口
  6
PHANTOM2
 62
     2
 48
0.5
100
AcDbLine
 10
8226.533176217916
 20
2806.618323441254
 30
0.0
 11
8206.502492075847
 21
2791.854138968687
 31
0.0
  0
LINE
  5
1599
330
406
100
AcDbEntity
  8
2-7搬入用開口
  6
PHANTOM2
 62
     2
 48
0.5
100
AcDbLine
 10
8228.570684870936
 20
2788.150916767367
 30
0.0
 11
8226.533176217916
 21
2806.618323441254
 31
0.0
  0
LINE
  5
159A
330
406
100
AcDbEntity
  8
2-7搬入用開口
  6
PHANTOM2
 62
     2
 48
0.5
100
AcDbLine
 10
8208.540536334416
 20
2773.387217626321
 30
0.0
 11
8228.570684870936
 21
2788.150916767367
 31
0.0
  0
LINE
  5
159B
330
406
100
AcDbEntity
  8
2-7搬入用開口
  6
PHANTOM2
 62
     2
 48
0.5
100
AcDbLine
 10
8240.624418997482
 20
2777.064403167638
 30
0.0
 11
8243.127355867088
 21
2778.910969860218
 31
0.0
  0
LINE
  5
159C
330
406
100
AcDbEntity
  8
2-7搬入用開口
  6
PHANTOM2
 62
     2
 48
0.5
100
AcDbLine
 10
8248.730081282586
 20
2703.628384120217
 30
0.0
 11
8240.624418997482
 21
2777.064403167638
 31
0.0
  0
LINE
  5
159D
330
406
100
AcDbEntity
  8
2-7搬入用開口
  6
PHANTOM2
 62
     2
 48
0.5
100
AcDbLine
 10
8240.579695906836
 20
2801.994902308274
 30
0.0
 11
8251.195671042268
 21
2705.822335483337
 31
0.0
  0
LINE
  5
159E
330
406
100
AcDbEntity
  8
2-7搬入用開口
  6
PHANTOM2
 62
     2
 48
0.5
100
AcDbLine
 10
8247.16050065477
 20
2766.905197637781
 30
0.0
 11
8243.082997644746
 21
2803.840012112438
 31
0.0
  0
LINE
  5
159F
330
406
100
AcDbEntity
  8
2-7搬入用開口
  6
PHANTOM2
 62
     2
 48
0.5
100
AcDbLine
 10
8247.16050065477
 20
2766.905197637781
 30
0.0
 11
8242.15275139249
 21
2763.21327903872
 31
0.0
  0
LINE
  5
15A0
330
406
100
AcDbEntity
  8
2-7搬入用開口
  6
PHANTOM2
 62
     2
 48
0.5
100
AcDbLine
 10
8224.814606336616
 20
2785.381811022751
 30
0.0
 11
8242.171072061521
 21
2628.129829252154
 31
0.0
  0
LWPOLYLINE
  5
15A1
330
406
100
AcDbEntity
  8
2-7搬入用開口
  6
PHANTOM2
 62
     2
100
AcDbPolyline
 90
        3
 70
     0
 43
0.0
 10
8243.800034001328
 20
2699.236520415018
 10
8243.033405150859
 20
2706.181294130511
 10
8247.963443366375
 20
2710.573142665622
  0
LWPOLYLINE
  5
15A6
330
406
100
AcDbEntity
  8
2-7搬入用開口
  6
PHANTOM2
 62
     2
100
AcDbPolyline
 90
        3
 70
     0
 43
0.0
 10
8253.660037965444
 20
2708.019261543622
 10
8251.549669084917
 20
2727.136339010864
 10
8246.506755408359
 20
2723.766705969426
  0
LINE
  5
15AB
330
406
100
AcDbEntity
  8
2-7搬入用開口
  6
PHANTOM2
 62
     2
 48
0.5
100
AcDbLine
 10
8245.720083581785
 20
2730.894777908311
 30
0.0
 11
8248.223655721091
 21
2732.74283138429
 31
0.0
  0
LWPOLYLINE
  5
15AC
330
406
100
AcDbEntity
  8
2-7搬入用開口
  6
PHANTOM2
 62
     2
100
AcDbPolyline
 90
        4
 70
     0
 43
0.0
 10
8252.89347357627
 20
2714.96477876559
 10
8257.82351562775
 20
2719.356627298962
 10
8258.591103504391
 20
2712.411352400167
 10
8243.800034001328
 20
2699.236520415018
  0
LWPOLYLINE
  5
15B2
330
406
100
AcDbEntity
  8
2-7搬入用開口
  6
PHANTOM2
 62
     2
100
AcDbPolyline
 90
        4
 70
     0
 43
0.0
 10
8240.069584317613
 20
2806.611943987169
 10
8239.051274307241
 20
2815.845055328964
 10
8241.555094233836
 20
2817.69037733698
 10
8242.573883405887
 20
2808.457053339188
  0
LINE
  5
15B8
330
406
100
AcDbEntity
  8
2-7搬入用開口
  6
PHANTOM2
 62
     2
 48
0.5
100
AcDbLine
 10
8209.915414457361
 20
2932.641501297087
 30
0.0
 11
8224.028289249877
 21
2804.772243207078
 31
0.0
  0
LINE
  5
15B9
330
406
100
AcDbEntity
  8
2-7搬入用開口
  6
PHANTOM2
 62
     2
 48
0.5
100
AcDbLine
 10
8189.885407399646
 20
2917.879258814905
 30
0.0
 11
8214.922307848082
 21
2936.334877007155
 31
0.0
  0
LINE
  5
15BA
330
406
100
AcDbEntity
  8
2-7搬入用開口
  6
PHANTOM2
 62
     2
 48
0.5
100
AcDbLine
 10
8187.336268830714
 20
2940.963465068846
 30
0.0
 11
8189.885407399646
 21
2917.879258814905
 31
0.0
  0
LINE
  5
15BB
330
406
100
AcDbEntity
  8
2-7搬入用開口
  6
PHANTOM2
 62
     2
 48
0.5
100
AcDbLine
 10
8238.277581462417
 20
2978.509924974592
 30
0.0
 11
8187.336268830714
 21
2940.963465068846
 31
0.0
  0
LINE
  5
15BC
330
406
100
AcDbEntity
  8
2-7搬入用開口
  6
PHANTOM2
 62
     2
 48
0.5
100
AcDbLine
 10
8233.595775095601
 20
3005.015058796769
 30
0.0
 11
8236.10243406587
 21
3006.864142718809
 31
0.0
  0
LINE
  5
15BD
330
406
100
AcDbEntity
  8
2-7搬入用開口
  6
PHANTOM2
 62
     2
 48
0.5
100
AcDbLine
 10
8235.406531981565
 20
2981.388740056476
 30
0.0
 11
8233.595775095601
 21
3005.015058796769
 31
0.0
  0
LINE
  5
15BE
330
406
100
AcDbEntity
  8
2-7搬入用開口
  6
PHANTOM2
 62
     2
 48
0.5
100
AcDbLine
 10
8191.834827205759
 20
2949.271423432341
 30
0.0
 11
8235.406531981565
 21
2981.388740056476
 31
0.0
  0
LINE
  5
15BF
330
406
100
AcDbEntity
  8
2-7搬入用開口
  6
PHANTOM2
 62
     2
 48
0.5
100
AcDbLine
 10
8190.816554125753
 20
2958.505020331728
 30
0.0
 11
8192.344819617323
 21
2944.653167871638
 31
0.0
  0
LINE
  5
15C0
330
406
100
AcDbEntity
  8
2-7搬入用開口
  6
PHANTOM2
 62
     2
 48
0.5
100
AcDbLine
 10
8205.837452490165
 20
2969.57683190254
 30
0.0
 11
8190.816554125753
 21
2958.505020331728
 31
0.0
  0
LINE
  5
15C1
330
406
100
AcDbEntity
  8
2-7搬入用開口
  6
PHANTOM2
 62
     2
 48
0.5
100
AcDbLine
 10
8206.856745221681
 20
2960.343477328065
 30
0.0
 11
8205.837452490165
 21
2969.57683190254
 31
0.0
  0
LINE
  5
15C2
330
406
100
AcDbEntity
  8
2-7搬入用開口
  6
PHANTOM2
 62
     2
 48
0.5
100
AcDbLine
 10
8214.922307848082
 20
2936.334877007155
 30
0.0
 11
8212.374960481916
 21
2959.416867016162
 31
0.0
  0
LINE
  5
15C3
330
406
100
AcDbEntity
  8
2-7搬入用開口
  6
PHANTOM2
 62
     2
 48
0.5
100
AcDbLine
 10
8231.427129054155
 20
3088.684687822174
 30
0.0
 11
8361.941894971844
 21
3117.798643482024
 31
0.0
  0
LINE
  5
15C4
330
406
100
AcDbEntity
  8
2-7搬入用開口
  6
PHANTOM2
 62
     2
 48
0.5
100
AcDbLine
 10
8213.803713246974
 20
3090.119355405795
 30
0.0
 11
8211.590783825453
 21
3110.164806450384
 31
0.0
  0
LINE
  5
15C5
330
406
100
AcDbEntity
  8
2-7搬入用開口
  6
PHANTOM2
 62
     2
 48
0.5
100
AcDbLine
 10
8209.543023446375
 20
3113.544543101407
 30
0.0
 11
8215.007353221288
 21
3186.829800150345
 31
0.0
  0
LINE
  5
15C6
330
406
100
AcDbEntity
  8
2-7搬入用開口
  6
PHANTOM2
 62
     2
 48
0.5
100
AcDbLine
 10
8204.895531077886
 20
3186.153912564591
 30
0.0
 11
8199.431251480552
 21
3112.869201764035
 31
0.0
  0
LINE
  5
15C7
330
406
100
AcDbEntity
  8
2-7搬入用開口
  6
PHANTOM2
 62
     2
 48
0.5
100
AcDbLine
 10
8201.285620732935
 20
3080.892684212349
 30
0.0
 11
8199.07299137292
 21
3100.93588933961
 31
0.0
  0
LINE
  5
15C8
330
406
100
AcDbEntity
  8
2-7搬入用開口
  6
PHANTOM2
 62
     2
 48
0.5
100
AcDbLine
 10
8201.285620732935
 20
3080.892684212349
 30
0.0
 11
8213.803713246974
 21
3090.119355405795
 31
0.0
  0
LINE
  5
15C9
330
406
100
AcDbEntity
  8
2-7搬入用開口
  6
PHANTOM2
 62
     2
 48
0.5
100
AcDbLine
 10
8200.521023655525
 20
3087.816228303819
 30
0.0
 11
8213.039650393104
 21
3097.043202739034
 31
0.0
  0
LINE
  5
15CA
330
406
100
AcDbEntity
  8
2-7搬入用開口
  6
PHANTOM2
 62
     2
 48
0.5
100
AcDbLine
 10
8191.384412369009
 20
3076.000701988201
 30
0.0
 11
8203.334579736356
 21
2967.730963194
 31
0.0
  0
LINE
  5
15CB
330
406
100
AcDbEntity
  8
2-7搬入用開口
  6
PHANTOM2
 62
     2
 48
0.5
100
AcDbLine
 10
8193.319376701984
 20
2960.350342791887
 30
0.0
 11
8179.738913799075
 21
3083.384283429994
 31
0.0
  0
LINE
  5
15CC
330
406
100
AcDbEntity
  8
2-7搬入用開口
  6
PHANTOM2
 62
     2
 48
0.5
100
AcDbLine
 10
8184.190558739606
 20
3230.266862612541
 30
0.0
 11
8184.437400291308
 21
3225.544783094107
 31
0.0
  0
LINE
  5
15CD
330
406
100
AcDbEntity
  8
2-7搬入用開口
  6
PHANTOM2
 62
     2
 48
0.5
100
AcDbLine
 10
8170.204895889037
 20
3222.784554169703
 30
0.0
 11
8188.005273751656
 21
3232.307458879541
 31
0.0
  0
LINE
  5
15CE
330
406
100
AcDbEntity
  8
2-7搬入用開口
  6
PHANTOM2
 62
     2
 48
0.5
100
AcDbLine
 10
8174.265358940544
 20
3220.10185747817
 30
0.0
 11
8174.019125473115
 21
3224.825211353561
 31
0.0
  0
LWPOLYLINE
  5
15CF
330
406
100
AcDbEntity
  8
2-7搬入用開口
  6
PHANTOM2
 62
     2
100
AcDbPolyline
 90
        4
 70
     0
 43
0.0
 10
8164.496149712961
 20
3232.018820749996
 10
8164.621125964723
 20
3229.625853773129
 10
8192.592681634618
 20
3244.593141213389
 10
8192.469126833039
 20
3246.985379184347
  0
LINE
  5
15D5
330
406
100
AcDbEntity
  8
2-7搬入用開口
  6
PHANTOM2
 62
     2
 48
0.5
100
AcDbLine
 10
8184.091582485278
 20
3257.248391639919
 30
0.0
 11
8171.376778897077
 21
3250.447435514758
 31
0.0
  0
LINE
  5
15D6
330
406
100
AcDbEntity
  8
2-7搬入用開口
  6
PHANTOM2
 62
     2
 48
0.5
100
AcDbLine
 10
8203.526530928149
 20
2843.346397484624
 30
0.0
 11
8199.121861928531
 21
2883.250283151986
 31
0.0
  0
LINE
  5
15D7
330
406
100
AcDbEntity
  8
2-7搬入用開口
  6
PHANTOM2
 62
     2
 48
0.5
100
AcDbLine
 10
8209.006828094487
 20
2793.699733878299
 30
0.0
 11
8206.736908767517
 21
2814.258341436773
 31
0.0
  0
LINE
  5
15D8
330
406
100
AcDbEntity
  8
2-7搬入用開口
  6
PHANTOM2
 62
     2
 48
0.5
100
AcDbLine
 10
8251.474931382357
 20
2820.04061226292
 30
0.0
 11
8341.591177318823
 21
2839.415205456999
 31
0.0
  0
LINE
  5
15D9
330
406
100
AcDbEntity
  8
2-7搬入用開口
  6
PHANTOM2
 62
     2
 48
0.5
100
AcDbLine
 10
8330.579848626355
 20
2787.52301403726
 30
0.0
 11
8339.039673832926
 21
2799.027685067558
 31
0.0
  0
LINE
  5
15DA
330
406
100
AcDbEntity
  8
2-7搬入用開口
  6
PHANTOM2
 62
     2
 48
0.5
100
AcDbLine
 10
8230.078696370695
 20
3085.428430673998
 30
0.0
 11
8250.298126859792
 21
2821.728213089475
 31
0.0
  0
LINE
  5
15DB
330
406
100
AcDbEntity
  8
2-7搬入用開口
  6
PHANTOM2
 62
     2
 48
0.5
100
AcDbLine
 10
8342.943785742155
 20
2841.973811787307
 30
0.0
 11
8363.123115930596
 21
3115.416001690527
 31
0.0
  0
ELLIPSE
  5
15DC
330
406
100
AcDbEntity
  8
2-7搬入用開口
  6
PHANTOM2
 62
     2
100
AcDbEllipse
 10
8291.625194455756
 20
2447.079865265525
 30
0.0
 11
36.58521556946
 21
297.9626697398138
 31
0.0
210
0.0
220
0.0
230
1.0
 40
0.5
 41
0.5314027538590002
 42
0.6238956700980001
  0
ELLIPSE
  5
15DD
330
406
100
AcDbEntity
  8
2-7搬入用開口
  6
PHANTOM2
 62
     2
100
AcDbEllipse
 10
8291.625194455756
 20
2447.079865265525
 30
0.0
 11
35.36651469709399
 21
288.037147643191
 31
0.0
210
0.0
220
0.0
230
1.0
 40
0.5
 41
0.5691756991800001
 42
0.630250238775
  0
ELLIPSE
  5
15DE
330
406
100
AcDbEntity
  8
2-7搬入用開口
  6
PHANTOM2
 62
     2
100
AcDbEllipse
 10
8291.625194455756
 20
2447.079865265525
 30
0.0
 11
35.975868852435
 21
292.9999389816071
 31
0.0
210
0.0
220
0.0
230
0.9999999999999998
 40
0.5
 41
0.567003891311
 42
0.62701796016
  0
ELLIPSE
  5
15DF
330
406
100
AcDbEntity
  8
2-7搬入用開口
  6
PHANTOM2
 62
     2
100
AcDbEllipse
 10
8291.625194455756
 20
2447.079865265525
 30
0.0
 11
36.58521556946
 21
297.9626697398138
 31
0.0
210
0.0
220
0.0
230
1.0
 40
0.5
 41
0.709353580002
 42
1.736973701392999
  0
ELLIPSE
  5
15E0
330
406
100
AcDbEntity
  8
2-7搬入用開口
  6
PHANTOM2
 62
     2
100
AcDbEllipse
 10
8291.625194455756
 20
2447.079865265525
 30
0.0
 11
36.58521556946
 21
297.9626697398138
 31
0.0
210
0.0
220
0.0
230
1.0
 40
0.5
 41
1.753629643482
 42
6.361722311361
  0
ELLIPSE
  5
15E1
330
406
100
AcDbEntity
  8
2-7搬入用開口
  6
PHANTOM2
 62
     2
100
AcDbEllipse
 10
8291.625194455756
 20
2447.079865265525
 30
0.0
 11
36.58521556946
 21
297.9626697398138
 31
0.0
210
0.0
220
0.0
230
1.0
 40
0.5
 41
0.095192946271
 42
0.498000854835
  0
ELLIPSE
  5
15E2
330
406
100
AcDbEntity
  8
2-7搬入用開口
  6
PHANTOM2
 62
     2
100
AcDbEllipse
 10
8291.625194455756
 20
2447.079865265525
 30
0.0
 11
39.631952873746
 21
322.776353820952
 31
0.0
210
0.0
220
0.0
230
1.0
 40
0.5
 41
0.524481730818
 42
0.6097415015370001
  0
ELLIPSE
  5
15E3
330
406
100
AcDbEntity
  8
2-7搬入用開口
  6
PHANTOM2
 62
     2
100
AcDbEllipse
 10
8291.625194455756
 20
2447.079865265525
 30
0.0
 11
39.631952873746
 21
322.776353820952
 31
0.0
210
0.0
220
0.0
230
1.0
 40
0.5
 41
0.6883217979250002
 42
1.737613659003
  0
ELLIPSE
  5
15E4
330
406
100
AcDbEntity
  8
2-7搬入用開口
  6
PHANTOM2
 62
     2
100
AcDbEllipse
 10
8291.625194455756
 20
2447.079865265525
 30
0.0
 11
39.631952873746
 21
322.776353820952
 31
0.0
210
0.0
220
0.0
230
1.0
 40
0.5
 41
1.752989153239998
 42
2.010481410608
  0
ELLIPSE
  5
15E5
330
406
100
AcDbEntity
  8
2-7搬入用開口
  6
PHANTOM2
 62
     2
100
AcDbEllipse
 10
8129.375723072772
 20
2288.730226298319
 30
0.0
 11
4.874778385152
 21
39.70188392828401
 31
0.0
210
0.0
220
0.0
230
0.9999999999999998
 40
0.5
 41
0.272930719526
 42
1.061274871720999
  0
ELLIPSE
  5
15E6
330
406
100
AcDbEntity
  8
2-7搬入用開口
  6
PHANTOM2
 62
     2
100
AcDbEllipse
 10
8291.625194455756
 20
2447.079865265525
 30
0.0
 11
40.241299590772
 21
327.739084579158
 31
0.0
210
0.0
220
0.0
230
0.9999999999999998
 40
0.5
 41
2.008901623449999
 42
6.314870649883999
  0
ELLIPSE
  5
15E7
330
406
100
AcDbEntity
  8
2-7搬入用開口
  6
PHANTOM2
 62
     2
100
AcDbEllipse
 10
8316.332500913061
 20
2793.404467224496
 30
0.0
 11
3.656083788863999
 21
29.776412946213
 31
0.0
210
0.0
220
0.0
230
0.9999999999999998
 40
0.5
 41
3.894370406745998
 42
4.575272254238998
  0
ELLIPSE
  5
15E8
330
406
100
AcDbEntity
  8
2-7搬入用開口
  6
PHANTOM2
 62
     2
100
AcDbEllipse
 10
8291.625194455756
 20
2447.079865265525
 30
0.0
 11
43.28803689505798
 21
352.552768660296
 31
0.0
210
0.0
220
0.0
230
0.9999999999999998
 40
0.5
 41
6.259710458437999
 42
6.363010216063998
  0
ELLIPSE
  5
15E9
330
406
100
AcDbEntity
  8
2-7搬入用開口
  6
PHANTOM2
 62
     2
100
AcDbEllipse
 10
8291.625194455756
 20
2447.079865265525
 30
0.0
 11
43.28803689505798
 21
352.552768660296
 31
0.0
210
0.0
220
0.0
230
0.9999999999999998
 40
0.5
 41
0.093901579458
 42
0.4892576969760001
  0
ELLIPSE
  5
15EA
330
406
100
AcDbEntity
  8
2-7搬入用開口
  6
PHANTOM2
 62
     2
100
AcDbEllipse
 10
8291.625194455756
 20
2447.079865265525
 30
0.0
 11
43.28803689505798
 21
352.552768660296
 31
0.0
210
0.0
220
0.0
230
0.9999999999999998
 40
0.5
 41
0.5174656329270002
 42
0.595420086459
  0
ELLIPSE
  5
15EB
330
406
100
AcDbEntity
  8
2-7搬入用開口
  6
PHANTOM2
 62
     2
100
AcDbEllipse
 10
8291.625194455756
 20
2447.079865265525
 30
0.0
 11
43.28803689505798
 21
352.552768660296
 31
0.0
210
0.0
220
0.0
230
0.9999999999999998
 40
0.5
 41
0.667103594572
 42
1.738261606096
  0
ELLIPSE
  5
15EC
330
406
100
AcDbEntity
  8
2-7搬入用開口
  6
PHANTOM2
 62
     2
100
AcDbEllipse
 10
8442.47205415658
 20
2775.772617434389
 30
0.0
 11
48.138438994077
 21
392.056123669684
 31
0.0
210
0.0
220
0.0
230
1.0
 40
0.5
 41
2.55648243098
 42
2.60040861
  0
ELLIPSE
  5
15ED
330
406
100
AcDbEntity
  8
2-7搬入用開口
  6
PHANTOM2
 62
     2
100
AcDbEllipse
 10
8300.567975520424
 20
2450.097428981789
 30
0.0
 11
0.121869459629
 21
0.9925470982070001
 31
0.0
210
0.0
220
0.0
230
1.0
 40
0.5
 41
0.0
 42
6.283185307179585
  0
ELLIPSE
  5
15EE
330
406
100
AcDbEntity
  8
2-7搬入用開口
  6
PHANTOM2
 62
     2
100
AcDbEllipse
 10
8290.027014636573
 20
2429.676169792742
 30
0.0
 11
0.121869459629
 21
0.9925470982070001
 31
0.0
210
0.0
220
0.0
230
1.0
 40
0.5
 41
0.0
 42
6.283185307179585
  0
ELLIPSE
  5
15EF
330
406
100
AcDbEntity
  8
2-7搬入用開口
  6
PHANTOM2
 62
     2
100
AcDbEllipse
 10
8290.021755903095
 20
2449.579678256129
 30
0.0
 11
2.437389192576
 21
19.850941964142
 31
0.0
210
0.0
220
0.0
230
0.9999999999999998
 40
0.5
 41
3.455227127216998
 42
4.902800055638
  0
ELLIPSE
  5
15F0
330
406
100
AcDbEntity
  8
2-7搬入用開口
  6
PHANTOM2
 62
     2
100
AcDbEllipse
 10
8300.045472693048
 20
2455.77825797205
 30
0.0
 11
0.121869459629
 21
0.9925470982070001
 31
0.0
210
0.0
220
0.0
230
1.0
 40
0.5
 41
0.0
 42
6.283185307179585
  0
ELLIPSE
  5
15F1
330
406
100
AcDbEntity
  8
2-7搬入用開口
  6
PHANTOM2
 62
     2
100
AcDbEllipse
 10
8298.506200634452
 20
2460.40857229068
 30
0.0
 11
0.121869459629
 21
0.9925470982070001
 31
0.0
210
0.0
220
0.0
230
1.0
 40
0.5
 41
0.0
 42
6.283185307179585
  0
ELLIPSE
  5
15F2
330
406
100
AcDbEntity
  8
2-7搬入用開口
  6
PHANTOM2
 62
     2
100
AcDbEllipse
 10
8296.137533293183
 20
2463.430032280755
 30
0.0
 11
0.121869459629
 21
0.9925470982070001
 31
0.0
210
0.0
220
0.0
230
1.0
 40
0.5
 41
0.0
 42
6.283185307179585
  0
ELLIPSE
  5
15F3
330
406
100
AcDbEntity
  8
2-7搬入用開口
  6
PHANTOM2
 62
     2
100
AcDbEllipse
 10
8291.625194455756
 20
2447.079865265525
 30
0.0
 11
0.609347298144
 21
4.962735491034998
 31
0.0
210
0.0
220
0.0
230
0.9999999999999998
 40
0.5
 41
0.0
 42
6.283185307179585
  0
ELLIPSE
  5
15F4
330
406
100
AcDbEntity
  8
2-7搬入用開口
  6
PHANTOM2
 62
     2
100
AcDbEllipse
 10
8291.625194455756
 20
2447.079865265525
 30
0.0
 11
1.279629267990999
 21
10.421744057892
 31
0.0
210
0.0
220
0.0
230
0.9999999999999998
 40
0.5
 41
0.0
 42
6.283185307179585
  0
ELLIPSE
  5
15F5
330
406
100
AcDbEntity
  8
2-7搬入用開口
  6
PHANTOM2
 62
     2
100
AcDbEllipse
 10
8300.013781697471
 20
2444.053459080511
 30
0.0
 11
0.121869459629
 21
0.9925470982070001
 31
0.0
210
0.0
220
0.0
230
1.0
 40
0.5
 41
0.0
 42
6.283185307179585
  0
ELLIPSE
  5
15F6
330
406
100
AcDbEntity
  8
2-7搬入用開口
  6
PHANTOM2
 62
     2
100
AcDbEllipse
 10
8298.446885154291
 20
2438.375548058584
 30
0.0
 11
0.121869459629
 21
0.9925470982070001
 31
0.0
210
0.0
220
0.0
230
1.0
 40
0.5
 41
0.0
 42
6.283185307179585
  0
ELLIPSE
  5
15F7
330
406
100
AcDbEntity
  8
2-7搬入用開口
  6
PHANTOM2
 62
     2
100
AcDbEllipse
 10
8296.057108881978
 20
2433.747014955525
 30
0.0
 11
0.121869459629
 21
0.9925470982070001
 31
0.0
210
0.0
220
0.0
230
1.0
 40
0.5
 41
0.0
 42
6.283185307179585
  0
ELLIPSE
  5
15F8
330
406
100
AcDbEntity
  8
2-7搬入用開口
  6
PHANTOM2
 62
     2
100
AcDbEllipse
 10
8293.132367899714
 20
2430.725738325918
 30
0.0
 11
0.121869459629
 21
0.9925470982070001
 31
0.0
210
0.0
220
0.0
230
1.0
 40
0.5
 41
0.0
 42
6.283185307179585
  0
ELLIPSE
  5
15F9
330
406
100
AcDbEntity
  8
2-7搬入用開口
  6
PHANTOM2
 62
     2
100
AcDbEllipse
 10
8287.115188463522
 20
2430.727973024469
 30
0.0
 11
0.121869459629
 21
0.9925470982070001
 31
0.0
210
0.0
220
0.0
230
1.0
 40
0.5
 41
0.0
 42
6.283185307179585
  0
ELLIPSE
  5
15FA
330
406
100
AcDbEntity
  8
2-7搬入用開口
  6
PHANTOM2
 62
     2
100
AcDbEllipse
 10
8284.74577337541
 20
2433.752142896253
 30
0.0
 11
0.121869459629
 21
0.9925470982070001
 31
0.0
210
0.0
220
0.0
230
1.0
 40
0.5
 41
0.0
 42
6.283185307179585
  0
ELLIPSE
  5
15FB
330
406
100
AcDbEntity
  8
2-7搬入用開口
  6
PHANTOM2
 62
     2
100
AcDbEllipse
 10
8283.206886351607
 20
2438.381225085133
 30
0.0
 11
0.121869459629
 21
0.9925470982070001
 31
0.0
210
0.0
220
0.0
230
1.0
 40
0.5
 41
0.0
 42
6.283185307179585
  0
ELLIPSE
  5
15FC
330
406
100
AcDbEntity
  8
2-7搬入用開口
  6
PHANTOM2
 62
     2
100
AcDbEllipse
 10
8291.625194455756
 20
2447.079865265525
 30
0.0
 11
2.437389192576
 21
19.850941964142
 31
0.0
210
0.0
220
0.0
230
0.9999999999999998
 40
0.5
 41
1.870612989105999
 42
6.244705676224
  0
ELLIPSE
  5
15FD
330
406
100
AcDbEntity
  8
2-7搬入用開口
  6
PHANTOM2
 62
     2
100
AcDbEllipse
 10
8291.625194455756
 20
2447.079865265525
 30
0.0
 11
43.28803689505798
 21
352.552768660296
 31
0.0
210
0.0
220
0.0
230
0.9999999999999998
 40
0.5
 41
1.752338542985999
 42
2.029982940322998
  0
ELLIPSE
  5
15FE
330
406
100
AcDbEntity
  8
2-7搬入用開口
  6
PHANTOM2
 62
     2
100
AcDbEllipse
 10
8291.625194455756
 20
2447.079865265525
 30
0.0
 11
35.36651469709399
 21
288.037147643191
 31
0.0
210
0.0
220
0.0
230
1.0
 40
0.5
 41
1.753914868035
 42
6.361433624698999
  0
ELLIPSE
  5
15FF
330
406
100
AcDbEntity
  8
2-7搬入用開口
  6
PHANTOM2
 62
     2
100
AcDbEllipse
 10
8291.625194455756
 20
2447.079865265525
 30
0.0
 11
35.36651469709399
 21
288.037147643191
 31
0.0
210
0.0
220
0.0
230
1.0
 40
0.5
 41
0.095477904507
 42
0.465455162102
  0
ELLIPSE
  5
1600
330
406
100
AcDbEntity
  8
2-7搬入用開口
  6
PHANTOM2
 62
     2
100
AcDbEllipse
 10
8442.47205415658
 20
2775.772617434389
 30
0.0
 11
48.747793149417
 21
397.0189150081
 31
0.0
210
0.0
220
0.0
230
1.0
 40
0.5
 41
2.012389032896999
 42
2.527133330503
  0
ELLIPSE
  5
1601
330
406
100
AcDbEntity
  8
2-7搬入用開口
  6
PHANTOM2
 62
     2
100
AcDbEllipse
 10
8283.154116073326
 20
2462.101380735968
 30
0.0
 11
1.218694596288
 21
9.925470982071001
 31
0.0
210
0.0
220
0.0
230
0.9999999999999998
 40
0.5
 41
2.832483125292
 42
5.114575158152999
  0
ELLIPSE
  5
1602
330
406
100
AcDbEntity
  8
2-7搬入用開口
  6
PHANTOM2
 62
     2
100
AcDbEllipse
 10
8429.250158387828
 20
2772.916393605042
 30
0.0
 11
49.357124989814
 21
401.9815246058868
 31
0.0
210
0.0
220
0.0
230
1.0
 40
0.5
 41
2.568979314396
 42
2.575326958853999
  0
ELLIPSE
  5
1603
330
406
100
AcDbEntity
  8
2-7搬入用開口
  6
PHANTOM2
 62
     2
100
AcDbEllipse
 10
8429.250158387828
 20
2772.916393605042
 30
0.0
 11
49.357124989814
 21
401.9815246058868
 31
0.0
210
0.0
220
0.0
230
1.0
 40
0.5
 41
2.593808497870999
 42
2.649357244519999
  0
ELLIPSE
  5
1604
330
406
100
AcDbEntity
  8
2-7搬入用開口
  6
PHANTOM2
 62
     2
100
AcDbEllipse
 10
8429.250158387828
 20
2772.916393605042
 30
0.0
 11
48.747793149417
 21
397.0189150081
 31
0.0
210
0.0
220
0.0
230
1.0
 40
0.5
 41
2.012389032896999
 42
2.567289805
  0
ELLIPSE
  5
1605
330
406
100
AcDbEntity
  8
2-7搬入用開口
  6
PHANTOM2
 62
     2
100
AcDbEllipse
 10
8200.769176106369
 20
2825.587493105575
 30
0.0
 11
2.193650273319
 21
17.865847767728
 31
0.0
210
0.0
220
0.0
230
0.9999999999999998
 40
0.5
 41
4.088401133234
 42
6.219545728141
  0
ELLIPSE
  5
1606
330
406
100
AcDbEntity
  8
2-7搬入用開口
  6
PHANTOM2
 62
     2
100
AcDbEllipse
 10
8322.026553195296
 20
2832.756805544881
 30
0.0
 11
0.304673649072
 21
2.481367745517998
 31
0.0
210
0.0
220
0.0
230
0.9999999999999998
 40
0.5
 41
4.799306153567998
 42
7.940898540842
  0
ELLIPSE
  5
1607
330
406
100
AcDbEntity
  8
2-7搬入用開口
  6
PHANTOM2
 62
     2
100
AcDbEllipse
 10
8291.625194455756
 20
2447.079865265525
 30
0.0
 11
39.631952873746
 21
322.776353820952
 31
0.0
210
0.0
220
0.0
230
1.0
 40
0.5
 41
0.094552456029
 42
0.5090628270549999
  0
ELLIPSE
  5
1608
330
406
100
AcDbEntity
  8
2-7搬入用開口
  6
PHANTOM2
 62
     2
100
AcDbEllipse
 10
8291.625194455756
 20
2447.079865265525
 30
0.0
 11
39.631952873746
 21
322.776353820952
 31
0.0
210
0.0
220
0.0
230
1.0
 40
0.5
 41
0.045710880585
 42
0.079176961791
  0
ELLIPSE
  5
1609
330
406
100
AcDbEntity
  8
2-7搬入用開口
  6
PHANTOM2
 62
     2
100
AcDbEllipse
 10
8291.625194455756
 20
2447.079865265525
 30
0.0
 11
35.36651469709399
 21
288.037147643191
 31
0.0
210
0.0
220
0.0
230
1.0
 40
0.5
 41
0.718817921884
 42
1.736684748415
  0
ELLIPSE
  5
160A
330
406
100
AcDbEntity
  8
2-7搬入用開口
  6
PHANTOM2
 62
     2
100
AcDbEllipse
 10
8109.236782859518
 20
2406.904204278346
 30
0.0
 11
0.304673649072
 21
2.481367745517998
 31
0.0
210
0.0
220
0.0
230
0.9999999999999998
 40
0.5
 41
0.174557809916
 42
3.316150197189998
  0
ELLIPSE
  5
160B
330
406
100
AcDbEntity
  8
2-7搬入用開口
  6
PHANTOM2
 62
     2
100
AcDbEllipse
 10
8190.566718823601
 20
3100.126469305071
 30
0.0
 11
3.046737071838999
 21
24.813682188006
 31
0.0
210
0.0
220
0.0
230
1.0
 40
0.5
 41
2.371027615834
 42
3.44638250292
  0
ELLIPSE
  5
160C
330
406
100
AcDbEntity
  8
2-7搬入用開口
  6
PHANTOM2
 62
     2
100
AcDbEllipse
 10
8201.588045335489
 20
3078.408227421674
 30
0.0
 11
2.437389192576
 21
19.850941964142
 31
0.0
210
0.0
220
0.0
230
0.9999999999999998
 40
0.5
 41
0.444158928129
 42
1.753405671634998
  0
ELLIPSE
  5
160D
330
406
100
AcDbEntity
  8
2-7搬入用開口
  6
PHANTOM2
 62
     2
100
AcDbEllipse
 10
8204.487129791536
 20
3113.206872436198
 30
0.0
 11
1.828041894431998
 21
14.888206473106
 31
0.0
210
0.0
220
0.0
230
0.9999999999999998
 40
0.5
 41
4.568303560614999
 42
8.881267113334997
  0
ELLIPSE
  5
160E
330
406
100
AcDbEntity
  8
2-7搬入用開口
  6
PHANTOM2
 62
     2
100
AcDbEllipse
 10
8204.487129791536
 20
3113.206872436198
 30
0.0
 11
1.218694596288
 21
9.925470982071001
 31
0.0
210
0.0
220
0.0
230
0.9999999999999998
 40
0.5
 41
1.666054520512
 42
4.807647174101998
  0
ELLIPSE
  5
160F
330
406
100
AcDbEntity
  8
2-7搬入用開口
  6
PHANTOM2
 62
     2
100
AcDbEllipse
 10
8192.254536671939
 20
3185.309463337344
 30
0.0
 11
5.484125102177999
 21
44.66461468649
 31
0.0
210
0.0
220
0.0
230
1.0
 40
0.5
 41
4.807654364637
 42
6.599764970656
  0
ELLIPSE
  5
1610
330
406
100
AcDbEntity
  8
2-7搬入用開口
  6
PHANTOM2
 62
     2
100
AcDbEllipse
 10
8229.20360729346
 20
2266.417380580448
 30
0.0
 11
121.8694624181779
 21
992.547120924673
 31
0.0
210
0.0
220
0.0
230
1.0
 40
0.5
 41
0.316587120327
 42
0.379991393244
  0
ELLIPSE
  5
1611
330
406
100
AcDbEntity
  8
2-7搬入用開口
  6
PHANTOM2
 62
     2
100
AcDbEllipse
 10
8152.859685649032
 20
3197.111301449471
 30
0.0
 11
1.957879183485
 21
15.945646334425
 31
0.0
210
0.0
220
0.0
230
1.0
 40
0.5
 41
4.24189109108
 42
6.027045520331999
  0
ELLIPSE
  5
1612
330
406
100
AcDbEntity
  8
2-7搬入用開口
  6
PHANTOM2
 62
     2
100
AcDbEllipse
 10
8169.706126988595
 20
3232.347074256184
 30
0.0
 11
1.218694596288
 21
9.925470982071001
 31
0.0
210
0.0
220
0.0
230
0.9999999999999998
 40
0.5
 41
1.909269038643999
 42
3.480065365439
  0
ELLIPSE
  5
1613
330
406
100
AcDbEntity
  8
2-7搬入用開口
  6
PHANTOM2
 62
     2
100
AcDbEllipse
 10
8187.506087708689
 20
3241.870950303799
 30
0.0
 11
1.218694596288
 21
9.925470982071001
 31
0.0
210
0.0
220
0.0
230
0.9999999999999998
 40
0.5
 41
3.480065365439
 42
5.050861692234
  0
ELLIPSE
  5
1614
330
406
100
AcDbEntity
  8
2-7搬入用開口
  6
PHANTOM2
 62
     2
100
AcDbEllipse
 10
8184.839535125627
 20
3242.902426516685
 30
0.0
 11
1.828041894431998
 21
14.888206473106
 31
0.0
210
0.0
220
0.0
230
0.9999999999999998
 40
0.5
 41
5.050884329102999
 42
6.621680655898
  0
ELLIPSE
  5
1615
330
406
100
AcDbEntity
  8
2-7搬入用開口
  6
PHANTOM2
 62
     2
100
AcDbEllipse
 10
8172.124664633988
 20
3236.100742060352
 30
0.0
 11
1.828041894431998
 21
14.888206473106
 31
0.0
210
0.0
220
0.0
230
0.9999999999999998
 40
0.5
 41
0.338495348719
 42
1.909291409197998
  0
ELLIPSE
  5
1616
330
406
100
AcDbEntity
  8
2-7搬入用開口
  6
PHANTOM2
 62
     2
100
AcDbEllipse
 10
8168.819345993124
 20
3206.448033824432
 30
0.0
 11
1.957879183485
 21
15.945646334425
 31
0.0
210
0.0
220
0.0
230
1.0
 40
0.5
 41
4.451552176322
 42
5.798660814729998
  0
ELLIPSE
  5
1617
330
406
100
AcDbEntity
  8
2-7搬入用開口
  6
PHANTOM2
 62
     2
100
AcDbEllipse
 10
8178.99132044045
 20
3211.890231109197
 30
0.0
 11
1.957879183485
 21
15.945646334425
 31
0.0
210
0.0
220
0.0
230
1.0
 40
0.5
 41
4.449282630441
 42
5.798660814729998
  0
ELLIPSE
  5
1618
330
406
100
AcDbEntity
  8
2-7搬入用開口
  6
PHANTOM2
 62
     2
100
AcDbEllipse
 10
8229.20360729346
 20
2266.417380580448
 30
0.0
 11
119.43208298839
 21
972.6962584720562
 31
0.0
210
0.0
220
0.0
230
0.9999999999999998
 40
0.5
 41
0.316586854011
 42
0.379298172412
  0
ELLIPSE
  5
1619
330
406
100
AcDbEntity
  8
2-7搬入用開口
  6
PHANTOM2
 62
     2
100
AcDbEllipse
 10
8204.369056965603
 20
3078.921129186379
 30
0.0
 11
6.093474143676998
 21
49.62736437601201
 31
0.0
210
0.0
220
0.0
230
1.0
 40
0.5
 41
0.234200634109
 42
1.542223388777999
  0
ELLIPSE
  5
161A
330
406
100
AcDbEntity
  8
2-7搬入用開口
  6
PHANTOM2
 62
     2
100
AcDbEllipse
 10
8192.254536671939
 20
3185.309463337344
 30
0.0
 11
3.046737071838999
 21
24.813682188006
 31
0.0
210
0.0
220
0.0
230
1.0
 40
0.5
 41
4.807660756224
 42
6.599771362242998
  0
ELLIPSE
  5
161B
330
406
100
AcDbEntity
  8
2-7搬入用開口
  6
PHANTOM2
 62
     2
100
AcDbEllipse
 10
8361.859926796375
 20
3115.327896338575
 30
0.0
 11
0.304673649072
 21
2.481367745517998
 31
0.0
210
0.0
220
0.0
230
0.9999999999999998
 40
0.5
 41
4.809188345425
 42
6.459200931476999
  0
ELLIPSE
  5
161C
330
406
100
AcDbEntity
  8
2-7搬入用開口
  6
PHANTOM2
 62
     2
100
AcDbEllipse
 10
8231.343691770584
 20
3086.214244828698
 30
0.0
 11
0.304673649072
 21
2.481367745517998
 31
0.0
210
0.0
220
0.0
230
0.9999999999999998
 40
0.5
 41
0.176015624297
 42
1.953633041347
  0
ELLIPSE
  5
161D
330
406
100
AcDbEntity
  8
2-7搬入用開口
  6
PHANTOM2
 62
     2
100
AcDbEllipse
 10
8251.562578982207
 20
2822.513541916133
 30
0.0
 11
0.304673649072
 21
2.481367745517998
 31
0.0
210
0.0
220
0.0
230
0.9999999999999998
 40
0.5
 41
1.953570190745999
 42
3.313389031772
  0
ELLIPSE
  5
161E
330
406
100
AcDbEntity
  8
2-7搬入用開口
  6
PHANTOM2
 62
     2
100
AcDbEllipse
 10
8341.679098753736
 20
2841.885676766003
 30
0.0
 11
0.304673649072
 21
2.481367745517998
 31
0.0
210
0.0
220
0.0
230
0.9999999999999998
 40
0.5
 41
3.313389031772
 42
4.809146001163998
  0
LWPOLYLINE
  5
161F
330
406
100
AcDbEntity
  8
2-7搬入用開口
  6
Continuous
 62
     2
100
AcDbPolyline
 90
        2
 70
     1
 43
8.0
 10
8287.625
 20
2447.08
 42
1.0
 10
8295.624999999999
 20
2447.08
 42
1.0
  0
LINE
  5
1623
330
406
100
AcDbEntity
  8
2-7搬入用開口
  6
PHANTOM2
 62
     2
 48
0.5
100
AcDbLine
 10
8290.575849497326
 20
2468.473203133343
 30
0.0
 11
8283.985238470924
 21
2473.546689971676
 31
0.0
  0
ELLIPSE
  5
1624
330
406
100
AcDbEntity
  8
2-7搬入用開口
  6
PHANTOM2
 62
     2
100
AcDbEllipse
 10
8442.47205415658
 20
2775.772617434389
 30
0.0
 11
48.138438994077
 21
392.056123669684
 31
0.0
210
0.0
220
0.0
230
1.0
 40
0.5
 41
2.530528643723
 42
2.540201728287998
  0
ELLIPSE
  5
1625
330
406
100
AcDbEntity
  8
2-7搬入用開口
  6
PHANTOM2
 62
     2
100
AcDbEllipse
 10
8229.20360729346
 20
2266.417380580448
 30
0.0
 11
119.127402191562
 21
970.214832512744
 31
0.0
210
0.0
220
0.0
230
1.0
 40
0.5
 41
0.381654271028
 42
0.46200024322
  0
ELLIPSE
  5
1626
330
406
100
AcDbEntity
  8
2-7搬入用開口
  6
PHANTOM2
 62
     2
100
AcDbEllipse
 10
8229.20360729346
 20
2266.417380580448
 30
0.0
 11
122.17415065332
 21
995.028607464196
 31
0.0
210
0.0
220
0.0
230
1.0
 40
0.5
 41
0.382663076449
 42
0.46200024322
  0
ELLIPSE
  5
1627
330
406
100
AcDbEntity
  8
2-7搬入用開口
  6
PHANTOM2
 62
     2
100
AcDbEllipse
 10
8118.208194597739
 20
3172.913421482072
 30
0.0
 11
1.523368535918999
 21
12.406841094003
 31
0.0
210
0.0
220
0.0
230
1.0
 40
0.5
 41
0.4619989116390001
 42
3.603591298912998
  0
LINE
  5
1628
330
406
100
AcDbEntity
  8
2-7搬入用開口
  6
PHANTOM2
 62
     2
 48
0.5
100
AcDbLine
 10
7183.28708515034
 20
2911.743652276353
 30
0.0
 11
7478.235187309334
 21
2895.5186076051
 31
0.0
  0
LINE
  5
1629
330
406
100
AcDbEntity
  8
2-7搬入用開口
  6
PHANTOM2
 62
     2
 48
0.5
100
AcDbLine
 10
7479.646321201387
 20
2894.862117477432
 30
0.0
 11
7569.300803295785
 21
2802.299111234695
 31
0.0
  0
LINE
  5
162A
330
406
100
AcDbEntity
  8
2-7搬入用開口
  6
PHANTOM2
 62
     2
 48
0.5
100
AcDbLine
 10
7569.838280395257
 20
2796.951932309927
 30
0.0
 11
7574.451953509163
 21
2799.514324086841
 31
0.0
  0
LINE
  5
162B
330
406
100
AcDbEntity
  8
2-7搬入用開口
  6
PHANTOM2
 62
     2
 48
0.5
100
AcDbLine
 10
7569.466006847573
 20
2791.334892701431
 30
0.0
 11
7569.838280395257
 21
2796.951932309927
 31
0.0
  0
LINE
  5
162C
330
406
100
AcDbEntity
  8
2-7搬入用開口
  6
PHANTOM2
 62
     2
 48
0.5
100
AcDbLine
 10
7573.701368217879
 20
2788.284732063769
 30
0.0
 11
7569.466006847573
 21
2791.334892701431
 31
0.0
  0
LINE
  5
162D
330
406
100
AcDbEntity
  8
2-7搬入用開口
  6
PHANTOM2
 62
     2
 48
0.5
100
AcDbLine
 10
7578.31242930428
 20
2790.84797021873
 30
0.0
 11
7573.701368217879
 21
2788.284732063769
 31
0.0
  0
LINE
  5
162E
330
406
100
AcDbEntity
  8
2-7搬入用開口
  6
PHANTOM2
 62
     2
 48
0.5
100
AcDbLine
 10
7578.689142782372
 20
2796.464062895039
 30
0.0
 11
7578.31242930428
 21
2790.84797021873
 31
0.0
  0
LINE
  5
162F
330
406
100
AcDbEntity
  8
2-7搬入用開口
  6
PHANTOM2
 62
     2
 48
0.5
100
AcDbLine
 10
7574.451953509163
 20
2799.514324086841
 30
0.0
 11
7578.689142782372
 21
2796.464062895039
 31
0.0
  0
LINE
  5
1630
330
406
100
AcDbEntity
  8
2-7搬入用開口
  6
PHANTOM2
 62
     2
 48
0.5
100
AcDbLine
 10
7580.796724169799
 20
2800.830910694485
 30
0.0
 11
7590.021254082931
 21
2790.027301894955
 31
0.0
  0
LINE
  5
1631
330
406
100
AcDbEntity
  8
2-7搬入用開口
  6
PHANTOM2
 62
     2
 48
0.5
100
AcDbLine
 10
7567.356667173564
 20
2786.968355488263
 30
0.0
 11
7576.57935089409
 21
2776.164573283863
 31
0.0
  0
LINE
  5
1632
330
406
100
AcDbEntity
  8
2-7搬入用開口
  6
PHANTOM2
 62
     2
 48
0.5
100
AcDbLine
 10
7566.141032929319
 20
2798.625803344538
 30
0.0
 11
7477.081648301055
 21
2890.576965746637
 31
0.0
  0
LINE
  5
1633
330
406
100
AcDbEntity
  8
2-7搬入用開口
  6
PHANTOM2
 62
     2
 48
0.5
100
AcDbLine
 10
7477.900897404805
 20
2890.532142728086
 30
0.0
 11
7253.28760692518
 21
2902.887014944713
 31
0.0
  0
LINE
  5
1634
330
406
100
AcDbEntity
  8
2-7搬入用開口
  6
PHANTOM2
 62
     2
 48
0.5
100
AcDbLine
 10
7248.750689912096
 20
2903.137326973871
 30
0.0
 11
7182.954129216004
 21
2906.756350224703
 31
0.0
  0
LINE
  5
1635
330
406
100
AcDbEntity
  8
2-7搬入用開口
  6
PHANTOM2
 62
     2
 48
0.5
100
AcDbLine
 10
7226.061780339872
 20
2904.385733776889
 30
0.0
 11
7224.893094666509
 21
2886.880148636559
 31
0.0
  0
LINE
  5
1636
330
406
100
AcDbEntity
  8
2-7搬入用開口
  6
PHANTOM2
 62
     2
 48
0.5
100
AcDbLine
 10
7229.431811653731
 20
2886.628484970666
 30
0.0
 11
7230.599632381454
 21
2904.136103551573
 31
0.0
  0
LINE
  5
1637
330
406
100
AcDbEntity
  8
2-7搬入用開口
  6
PHANTOM2
 62
     2
 48
0.5
100
AcDbLine
 10
7247.082941322486
 20
2878.149683763203
 30
0.0
 11
7248.918849958741
 21
2905.629525917536
 31
0.0
  0
LINE
  5
1638
330
406
100
AcDbEntity
  8
2-7搬入用開口
  6
PHANTOM2
 62
     2
 48
0.5
100
AcDbLine
 10
7253.455439678643
 20
2905.38097333888
 30
0.0
 11
7251.61905539938
 21
2877.900668523066
 31
0.0
  0
LINE
  5
1639
330
406
100
AcDbEntity
  8
2-7搬入用開口
  6
PHANTOM2
 62
     2
 48
0.5
100
AcDbLine
 10
7252.365991416782
 20
2875.406981683034
 30
0.0
 11
7251.697930970478
 21
2865.433503979919
 31
0.0
  0
LINE
  5
163A
330
406
100
AcDbEntity
  8
2-7搬入用開口
  6
PHANTOM2
 62
     2
 48
0.5
100
AcDbLine
 10
7251.696915137038
 20
2865.952907908678
 30
0.0
 11
7324.420230228696
 21
2516.689930541856
 31
0.0
  0
LINE
  5
163B
330
406
100
AcDbEntity
  8
2-7搬入用開口
  6
PHANTOM2
 62
     2
 48
0.5
100
AcDbLine
 10
7320.870568266784
 20
2515.71458629639
 30
0.0
 11
7248.740069747461
 21
2862.127288209941
 31
0.0
  0
LINE
  5
163C
330
406
100
AcDbEntity
  8
2-7搬入用開口
  6
PHANTOM2
 62
     2
 48
0.5
100
AcDbLine
 10
7246.012943887139
 20
2875.755978179071
 30
0.0
 11
7245.346528913231
 21
2865.782165543979
 31
0.0
  0
LINE
  5
163D
330
406
100
AcDbEntity
  8
2-7搬入用開口
  6
PHANTOM2
 62
     2
 48
0.5
100
AcDbLine
 10
7429.08669434067
 20
2875.646591181654
 30
0.0
 11
7430.257157112198
 21
2893.151314770588
 31
0.0
  0
LINE
  5
163E
330
406
100
AcDbEntity
  8
2-7搬入用開口
  6
PHANTOM2
 62
     2
 48
0.5
100
AcDbLine
 10
7434.793384991698
 20
2892.904004164305
 30
0.0
 11
7433.625010354005
 21
2875.396416054348
 31
0.0
  0
LWPOLYLINE
  5
163F
330
406
100
AcDbEntity
  8
2-7搬入用開口
  6
PHANTOM2
 62
     2
100
AcDbPolyline
 90
        5
 70
     0
 43
0.0
 10
7543.596466790202
 20
2913.2314336468
 10
7543.555125190502
 20
2918.223194763725
 10
7583.062628887832
 20
2919.622941347686
 10
7596.012716812507
 20
2931.594109944369
 10
7640.752114824969
 20
2946.452837126721
  0
LINE
  5
1646
330
406
100
AcDbEntity
  8
2-7搬入用開口
  6
PHANTOM2
 62
     2
 48
0.5
100
AcDbLine
 10
7640.469819729149
 20
2947.55142350246
 30
0.0
 11
7665.200229349185
 21
2851.085128048049
 31
0.0
  0
LINE
  5
1647
330
406
100
AcDbEntity
  8
2-7搬入用開口
  6
PHANTOM2
 62
     2
 48
0.5
100
AcDbLine
 10
7669.582953317932
 20
2852.540658092151
 30
0.0
 11
7634.526513129007
 21
2840.89746762047
 31
0.0
  0
LINE
  5
1648
330
406
100
AcDbEntity
  8
2-7搬入用開口
  6
PHANTOM2
 62
     2
 48
0.5
100
AcDbLine
 10
7635.236370458
 20
2833.927004984463
 30
0.0
 11
7639.84668905201
 21
2836.493278049279
 31
0.0
  0
LINE
  5
1649
330
406
100
AcDbEntity
  8
2-7搬入用開口
  6
PHANTOM2
 62
     2
 48
0.5
100
AcDbLine
 10
7634.859751970926
 20
2828.313167907122
 30
0.0
 11
7635.236370458
 21
2833.927004984463
 31
0.0
  0
LINE
  5
164A
330
406
100
AcDbEntity
  8
2-7搬入用開口
  6
PHANTOM2
 62
     2
 48
0.5
100
AcDbLine
 10
7639.09704082141
 20
2825.26439826994
 30
0.0
 11
7634.859751970926
 21
2828.313167907122
 31
0.0
  0
LINE
  5
164B
330
406
100
AcDbEntity
  8
2-7搬入用開口
  6
PHANTOM2
 62
     2
 48
0.5
100
AcDbLine
 10
7643.709841904687
 20
2827.827051879609
 30
0.0
 11
7639.09704082141
 21
2825.26439826994
 31
0.0
  0
LINE
  5
164C
330
406
100
AcDbEntity
  8
2-7搬入用開口
  6
PHANTOM2
 62
     2
 48
0.5
100
AcDbLine
 10
7644.085518744815
 20
2833.440940757567
 30
0.0
 11
7643.709841904687
 21
2827.827051879609
 31
0.0
  0
LINE
  5
164D
330
406
100
AcDbEntity
  8
2-7搬入用開口
  6
PHANTOM2
 62
     2
 48
0.5
100
AcDbLine
 10
7639.84668905201
 20
2836.493278049279
 30
0.0
 11
7644.085518744815
 21
2833.440940757567
 31
0.0
  0
LINE
  5
164E
330
406
100
AcDbEntity
  8
2-7搬入用開口
  6
PHANTOM2
 62
     2
 48
0.5
100
AcDbLine
 10
7631.369219454334
 20
2834.664770164565
 30
0.0
 11
7634.43068902692
 21
2822.724029734997
 31
0.0
  0
LINE
  5
164F
330
406
100
AcDbEntity
  8
2-7搬入用開口
  6
PHANTOM2
 62
     2
 48
0.5
100
AcDbLine
 10
7648.800701495257
 20
2822.312977792003
 30
0.0
 11
7643.29104432771
 21
2843.808119863842
 31
0.0
  0
LINE
  5
1650
330
406
100
AcDbEntity
  8
2-7搬入用開口
  6
PHANTOM2
 62
     2
 48
0.5
100
AcDbLine
 10
7647.671914496976
 20
2845.262529819379
 30
0.0
 11
7620.834453051682
 21
2949.955962812601
 31
0.0
  0
LINE
  5
1651
330
406
100
AcDbEntity
  8
2-7搬入用開口
  6
PHANTOM2
 62
     2
 48
0.5
100
AcDbLine
 10
7521.361793786303
 20
2995.758347897965
 30
0.0
 11
7617.250783690335
 21
2951.37083177347
 31
0.0
  0
LINE
  5
1652
330
406
100
AcDbEntity
  8
2-7搬入用開口
  6
PHANTOM2
 62
     2
 48
0.5
100
AcDbLine
 10
7524.619073167002
 20
3013.703123434649
 30
0.0
 11
7521.361793786303
 21
2995.758347897965
 31
0.0
  0
LINE
  5
1653
330
406
100
AcDbEntity
  8
2-7搬入用開口
  6
PHANTOM2
 62
     2
 48
0.5
100
AcDbLine
 10
7615.45904367065
 20
2999.582582998145
 30
0.0
 11
7536.820530561472
 21
3015.434130912961
 31
0.0
  0
LINE
  5
1654
330
406
100
AcDbEntity
  8
2-7搬入用開口
  6
PHANTOM2
 62
     2
 48
0.5
100
AcDbLine
 10
7719.518844698811
 20
3020.799910958551
 30
0.0
 11
7633.500829172065
 21
2999.954897262628
 31
0.0
  0
LINE
  5
1655
330
406
100
AcDbEntity
  8
2-7搬入用開口
  6
PHANTOM2
 62
     2
 48
0.5
100
AcDbLine
 10
7749.573152380236
 20
3003.228505121183
 30
0.0
 11
7742.706290475519
 21
3021.361365868366
 31
0.0
  0
LINE
  5
1656
330
406
100
AcDbEntity
  8
2-7搬入用開口
  6
PHANTOM2
 62
     2
 48
0.5
100
AcDbLine
 10
7646.435913639644
 20
2951.916329771122
 30
0.0
 11
7749.573152380236
 21
3003.228505121183
 31
0.0
  0
LWPOLYLINE
  5
1657
330
406
100
AcDbEntity
  8
2-7搬入用開口
  6
PHANTOM2
 62
     2
100
AcDbPolyline
 90
        4
 70
     0
 43
0.0
 10
7641.978415117481
 20
2941.675377442271
 10
7598.157608337193
 20
2927.124000358325
 10
7584.707197463628
 20
2914.688564426445
 10
7543.596466790202
 20
2913.2314336468
  0
LINE
  5
165D
330
406
100
AcDbEntity
  8
2-7搬入用開口
  6
PHANTOM2
 62
     2
 48
0.5
100
AcDbLine
 10
7578.045616676367
 20
2923.390193430051
 30
0.0
 11
7544.915930426333
 21
2930.385690103586
 31
0.0
  0
LINE
  5
165E
330
406
100
AcDbEntity
  8
2-7搬入用開口
  6
PHANTOM2
 62
     2
 48
0.5
100
AcDbLine
 10
7536.246551511624
 20
2928.130025324578
 30
0.0
 11
7577.278184942803
 21
2919.466221512427
 31
0.0
  0
LINE
  5
165F
330
406
100
AcDbEntity
  8
2-7搬入用開口
  6
PHANTOM2
 62
     2
 48
0.5
100
AcDbLine
 10
7537.045010005972
 20
2928.158509084671
 30
0.0
 11
7577.909538765419
 21
2939.725506381839
 31
0.0
  0
LINE
  5
1660
330
406
100
AcDbEntity
  8
2-7搬入用開口
  6
PHANTOM2
 62
     2
 48
0.5
100
AcDbLine
 10
7544.747589329499
 20
2950.61878950227
 30
0.0
 11
7577.476635566021
 21
2943.705335803376
 31
0.0
  0
LINE
  5
1661
330
406
100
AcDbEntity
  8
2-7搬入用開口
  6
PHANTOM2
 62
     2
 48
0.5
100
AcDbLine
 10
7576.909928230297
 20
2963.824700121537
 30
0.0
 11
7536.048369274374
 21
2952.255553594175
 31
0.0
  0
LINE
  5
1662
330
406
100
AcDbEntity
  8
2-7搬入用開口
  6
PHANTOM2
 62
     2
 48
0.5
100
AcDbLine
 10
7577.70966733603
 20
2963.85238019398
 30
0.0
 11
7544.579941952514
 21
2970.84812343373
 31
0.0
  0
LINE
  5
1663
330
406
100
AcDbEntity
  8
2-7搬入用開口
  6
PHANTOM2
 62
     2
 48
0.5
100
AcDbLine
 10
7535.881297117675
 20
2972.486841741737
 30
0.0
 11
7558.067004172606
 21
2978.769487401601
 31
0.0
  0
LINE
  5
1664
330
406
100
AcDbEntity
  8
2-7搬入用開口
  6
PHANTOM2
 62
     2
 48
0.5
100
AcDbLine
 10
7563.565881566581
 20
2976.223458302978
 30
0.0
 11
7536.711392140309
 21
2968.622309038535
 31
0.0
  0
LINE
  5
1665
330
406
100
AcDbEntity
  8
2-7搬入用開口
  6
PHANTOM2
 62
     2
 48
0.5
100
AcDbLine
 10
7535.912455970765
 20
2968.593332177071
 30
0.0
 11
7569.043051352718
 21
2961.597296664676
 31
0.0
  0
LINE
  5
1666
330
406
100
AcDbEntity
  8
2-7搬入用開口
  6
PHANTOM2
 62
     2
 48
0.5
100
AcDbLine
 10
7536.880088459092
 20
2948.388701271941
 30
0.0
 11
7577.741236802068
 21
2959.958359214308
 31
0.0
  0
LINE
  5
1667
330
406
100
AcDbEntity
  8
2-7搬入用開口
  6
PHANTOM2
 62
     2
 48
0.5
100
AcDbLine
 10
7569.209590443228
 20
2941.365518462835
 30
0.0
 11
7536.079068741973
 21
2948.361824887146
 31
0.0
  0
LINE
  5
1668
330
406
100
AcDbEntity
  8
2-7搬入用開口
  6
PHANTOM2
 62
     2
 48
0.5
100
AcDbLine
 10
7577.076485610509
 20
2943.593195878708
 30
0.0
 11
7536.215967878816
 21
2932.025489105348
 31
0.0
  0
LINE
  5
1669
330
406
100
AcDbEntity
  8
2-7搬入用開口
  6
PHANTOM2
 62
     2
 48
0.5
100
AcDbLine
 10
7642.003130841397
 20
3029.168658770367
 30
0.0
 11
7548.590440305144
 21
3034.307596726983
 31
0.0
  0
LINE
  5
166A
330
406
100
AcDbEntity
  8
2-7搬入用開口
  6
PHANTOM2
 62
     2
 48
0.5
100
AcDbLine
 10
7725.483702931902
 20
3033.285522352893
 30
0.0
 11
7642.003130841397
 21
3029.168658770367
 31
0.0
  0
LINE
  5
166B
330
406
100
AcDbEntity
  8
2-7搬入用開口
  6
PHANTOM2
 62
     2
 48
0.5
100
AcDbLine
 10
7675.093341773157
 20
2831.043978759265
 30
0.0
 11
7669.582953317932
 21
2852.540658092151
 31
0.0
  0
LINE
  5
166C
330
406
100
AcDbEntity
  8
2-7搬入用開口
  6
PHANTOM2
 62
     2
 48
0.5
100
AcDbLine
 10
7640.038745744651
 20
2819.400931252565
 30
0.0
 11
7675.093341773157
 21
2831.043978759265
 31
0.0
  0
LINE
  5
166D
330
406
100
AcDbEntity
  8
2-7搬入用開口
  6
PHANTOM2
 62
     2
 48
0.5
100
AcDbLine
 10
7346.062990611439
 20
2518.071720463559
 30
0.0
 11
7638.039562627141
 21
2819.240097518967
 31
0.0
  0
LINE
  5
166E
330
406
100
AcDbEntity
  8
2-7搬入用開口
  6
PHANTOM2
 62
     2
 48
0.5
100
AcDbLine
 10
7349.186121252029
 20
2514.996447324281
 30
0.0
 11
7352.772733872196
 21
2524.990919286838
 31
0.0
  0
LINE
  5
166F
330
406
100
AcDbEntity
  8
2-7搬入用開口
  6
PHANTOM2
 62
     2
 48
0.5
100
AcDbLine
 10
7631.77153629999
 20
2833.093087676681
 30
0.0
 11
7336.838993891511
 21
2528.875821219858
 31
0.0
  0
LINE
  5
1670
330
406
100
AcDbEntity
  8
2-7搬入用開口
  6
PHANTOM2
 62
     2
 48
0.5
100
AcDbLine
 10
7672.902118993754
 20
2830.318298869694
 30
0.0
 11
7733.632567340555
 21
2593.414884040803
 31
0.0
  0
LWPOLYLINE
  5
1671
330
406
100
AcDbEntity
  8
2-7搬入用開口
  6
PHANTOM2
 62
     2
100
AcDbPolyline
 90
        3
 70
     0
 43
0.0
 10
7735.823085236905
 20
2594.143329444099
 10
7709.531208761712
 20
2585.411278254032
 10
7718.753317855169
 20
2549.437608230278
  0
LINE
  5
1676
330
406
100
AcDbEntity
  8
2-7搬入用開口
  6
PHANTOM2
 62
     2
 48
0.5
100
AcDbLine
 10
7719.130142808039
 20
2549.416878841787
 30
0.0
 11
7696.493756752826
 21
2595.04770463706
 31
0.0
  0
LINE
  5
1677
330
406
100
AcDbEntity
  8
2-7搬入用開口
  6
PHANTOM2
 62
     2
 48
0.5
100
AcDbLine
 10
7661.917556186033
 20
2601.589312090214
 30
0.0
 11
7708.417628965186
 21
2599.029578695946
 31
0.0
  0
LINE
  5
1678
330
406
100
AcDbEntity
  8
2-7搬入用開口
  6
PHANTOM2
 62
     2
 48
0.5
100
AcDbLine
 10
7660.587463314552
 20
2581.638549824717
 30
0.0
 11
7661.917556186033
 21
2601.589312090214
 31
0.0
  0
LINE
  5
1679
330
406
100
AcDbEntity
  8
2-7搬入用開口
  6
PHANTOM2
 62
     2
 48
0.5
100
AcDbLine
 10
7682.6581661481
 20
2580.425166824419
 30
0.0
 11
7660.587463314552
 21
2581.638549824717
 31
0.0
  0
LINE
  5
167A
330
406
100
AcDbEntity
  8
2-7搬入用開口
  6
PHANTOM2
 62
     2
 48
0.5
100
AcDbLine
 10
7696.408240851633
 20
2550.678236665749
 30
0.0
 11
7680.342561425094
 21
2585.435151591061
 31
0.0
  0
LINE
  5
167B
330
406
100
AcDbEntity
  8
2-7搬入用開口
  6
PHANTOM2
 62
     2
 48
0.5
100
AcDbLine
 10
7745.620406073818
 20
2555.929229308085
 30
0.0
 11
7725.030315619576
 21
2549.0903282335
 31
0.0
  0
LINE
  5
167C
330
406
100
AcDbEntity
  8
2-7搬入用開口
  6
PHANTOM2
 62
     2
 48
0.5
100
AcDbLine
 10
7743.683611688815
 20
2563.489750170143
 30
0.0
 11
7745.620406073818
 21
2555.929229308085
 31
0.0
  0
LINE
  5
167D
330
406
100
AcDbEntity
  8
2-7搬入用開口
  6
PHANTOM2
 62
     2
 48
0.5
100
AcDbLine
 10
7744.047054829676
 20
2589.889652606895
 30
0.0
 11
7750.177017430688
 21
2565.978471043688
 31
0.0
  0
LINE
  5
167E
330
406
100
AcDbEntity
  8
2-7搬入用開口
  6
PHANTOM2
 62
     2
 48
0.5
100
AcDbLine
 10
7735.823085236905
 20
2594.143329444099
 30
0.0
 11
7737.553908413343
 21
2587.391492273696
 31
0.0
  0
LINE
  5
167F
330
406
100
AcDbEntity
  8
2-7搬入用開口
  6
PHANTOM2
 62
     2
 48
0.5
100
AcDbLine
 10
7711.723455491733
 20
2586.138139158538
 30
0.0
 11
7650.991114720018
 21
2823.040688075056
 31
0.0
  0
LINE
  5
1680
330
406
100
AcDbEntity
  8
2-7搬入用開口
  6
PHANTOM2
 62
     2
 48
0.5
100
AcDbLine
 10
7704.339420991859
 20
2579.232466735881
 30
0.0
 11
7711.213698311704
 21
2578.854804684198
 31
0.0
  0
LINE
  5
1681
330
406
100
AcDbEntity
  8
2-7搬入用開口
  6
PHANTOM2
 62
     2
 48
0.5
100
AcDbLine
 10
7743.429838896877
 20
2555.200045737453
 30
0.0
 11
7745.28288587029
 21
2547.967292294913
 31
0.0
  0
LINE
  5
1682
330
406
100
AcDbEntity
  8
2-7搬入用開口
  6
PHANTOM2
 62
     2
 48
0.5
100
AcDbLine
 10
7769.228762688308
 20
2546.638602808815
 30
0.0
 11
7393.938982690446
 21
2567.454423628422
 31
0.0
  0
LINE
  5
1683
330
406
100
AcDbEntity
  8
2-7搬入用開口
  6
PHANTOM2
 62
     2
 48
0.5
100
AcDbLine
 10
7375.246316932837
 20
2568.49139614353
 30
0.0
 11
7329.075257199156
 21
2571.052873631417
 31
0.0
  0
LINE
  5
1684
330
406
100
AcDbEntity
  8
2-7搬入用開口
  6
PHANTOM2
 62
     2
 48
0.5
100
AcDbLine
 10
7293.490721226527
 20
2501.096070583881
 30
0.0
 11
7276.350499186022
 21
2483.415057602135
 31
0.0
  0
LINE
  5
1685
330
406
100
AcDbEntity
  8
2-7搬入用開口
  6
PHANTOM2
 62
     2
 48
0.5
100
AcDbLine
 10
7405.531006684523
 20
2480.754849500451
 30
0.0
 11
7298.162595279205
 21
2497.775881107013
 31
0.0
  0
LINE
  5
1686
330
406
100
AcDbEntity
  8
2-7搬入用開口
  6
PHANTOM2
 62
     2
 48
0.5
100
AcDbLine
 10
7452.629852503529
 20
2475.82045377347
 30
0.0
 11
7405.531006684523
 21
2480.754849500451
 31
0.0
  0
LINE
  5
1687
330
406
100
AcDbEntity
  8
2-7搬入用開口
  6
PHANTOM2
 62
     2
 48
0.5
100
AcDbLine
 10
7662.05102774458
 20
2442.6196573445
 30
0.0
 11
7452.629852503529
 21
2475.82045377347
 31
0.0
  0
LINE
  5
1688
330
406
100
AcDbEntity
  8
2-7搬入用開口
  6
PHANTOM2
 62
     2
 48
0.5
100
AcDbLine
 10
7455.641072504595
 20
2495.588955953875
 30
0.0
 11
7665.059787005112
 21
2462.391272010088
 31
0.0
  0
LINE
  5
1689
330
406
100
AcDbEntity
  8
2-7搬入用開口
  6
PHANTOM2
 62
     2
 48
0.5
100
AcDbLine
 10
7409.293360879185
 20
2505.467306347363
 30
0.0
 11
7455.641072504595
 21
2495.588955953875
 31
0.0
  0
LINE
  5
168A
330
406
100
AcDbEntity
  8
2-7搬入用開口
  6
PHANTOM2
 62
     2
 48
0.5
100
AcDbLine
 10
7323.938045170041
 20
2518.99890330098
 30
0.0
 11
7409.293360879185
 21
2505.467306347363
 31
0.0
  0
LINE
  5
168B
330
406
100
AcDbEntity
  8
2-7搬入用開口
  6
PHANTOM2
 62
     2
 48
0.5
100
AcDbLine
 10
7320.058120785185
 20
2519.613622518843
 30
0.0
 11
7305.021001972625
 21
2521.997839245992
 31
0.0
  0
LINE
  5
168C
330
406
100
AcDbEntity
  8
2-7搬入用開口
  6
PHANTOM2
 62
     2
 48
0.5
100
AcDbLine
 10
7318.534546833359
 20
2526.92745847458
 30
0.0
 11
7312.590989024823
 21
2520.797445474287
 31
0.0
  0
LINE
  5
168D
330
406
100
AcDbEntity
  8
2-7搬入用開口
  6
PHANTOM2
 62
     2
 48
0.5
100
AcDbLine
 10
7343.547014174976
 20
2535.795859522506
 30
0.0
 11
7322.030047741183
 21
2528.167433445487
 31
0.0
  0
LINE
  5
168E
330
406
100
AcDbEntity
  8
2-7搬入用開口
  6
PHANTOM2
 62
     2
 48
0.5
100
AcDbLine
 10
7052.349868520479
 20
2693.908387025595
 30
0.0
 11
7317.817783281093
 21
2513.291548400813
 31
0.0
  0
LWPOLYLINE
  5
168F
330
406
100
AcDbEntity
  8
2-7搬入用開口
  6
PHANTOM2
 62
     2
100
AcDbPolyline
 90
        7
 70
     0
 43
0.0
 10
7320.834008951543
 20
2514.943794554552
 10
7315.815054583229
 20
2506.709632624641
 10
7319.702734454252
 20
2497.985262514895
 10
7328.612237258486
 20
2497.496385113282
 10
7333.631420310007
 20
2505.727310527162
 10
7329.743330255864
 20
2514.452198490244
 10
7320.834008951543
 20
2514.943794554552
  0
LINE
  5
1698
330
406
100
AcDbEntity
  8
2-7搬入用開口
  6
PHANTOM2
 62
     2
 48
0.5
100
AcDbLine
 10
7315.849926815532
 20
2509.881762136909
 30
0.0
 11
7050.38067030729
 21
2690.500154180536
 31
0.0
  0
LINE
  5
1699
330
406
100
AcDbEntity
  8
2-7搬入用開口
  6
PHANTOM2
 62
     2
 48
0.5
100
AcDbLine
 10
7294.064615443993
 20
2516.141103881041
 30
0.0
 11
7292.559033131022
 21
2506.256851148385
 31
0.0
  0
LINE
  5
169A
330
406
100
AcDbEntity
  8
2-7搬入用開口
  6
PHANTOM2
 62
     2
 48
0.5
100
AcDbLine
 10
7293.425143276363
 20
2446.844987219098
 30
0.0
 11
7336.853812347517
 21
2491.64107795757
 31
0.0
  0
LINE
  5
169B
330
406
100
AcDbEntity
  8
2-7搬入用開口
  6
PHANTOM2
 62
     2
 48
0.5
100
AcDbLine
 10
7698.27354002293
 20
2350.482140657518
 30
0.0
 11
7342.393581103626
 21
2444.73452451787
 31
0.0
  0
LINE
  5
169C
330
406
100
AcDbEntity
  8
2-7搬入用開口
  6
PHANTOM2
 62
     2
 48
0.5
100
AcDbLine
 10
7349.61901506674
 20
2447.986282876609
 30
0.0
 11
7690.966984231407
 21
2357.580381543551
 31
0.0
  0
LINE
  5
169D
330
406
100
AcDbEntity
  8
2-7搬入用開口
  6
PHANTOM2
 62
     2
 48
0.5
100
AcDbLine
 10
7841.067599911937
 20
2293.417793858143
 30
0.0
 11
7772.032848608565
 21
2442.773485320757
 31
0.0
  0
LINE
  5
169E
330
406
100
AcDbEntity
  8
2-7搬入用開口
  6
PHANTOM2
 62
     2
 48
0.5
100
AcDbLine
 10
7751.845318912133
 20
2430.755788696188
 30
0.0
 11
7819.38719779301
 21
2294.609942934971
 31
0.0
  0
LINE
  5
169F
330
406
100
AcDbEntity
  8
2-7搬入用開口
  6
PHANTOM2
 62
     2
 48
0.5
100
AcDbLine
 10
7808.690770959596
 20
2295.196130137222
 30
0.0
 11
7863.140065110282
 21
2292.203328617245
 31
0.0
  0
LINE
  5
16A0
330
406
100
AcDbEntity
  8
2-7搬入用開口
  6
PHANTOM2
 62
     2
 48
0.5
100
AcDbLine
 10
7807.357358623483
 20
2275.249774247734
 30
0.0
 11
7808.690770959596
 21
2295.196130137222
 31
0.0
  0
LINE
  5
16A1
330
406
100
AcDbEntity
  8
2-7搬入用開口
  6
PHANTOM2
 62
     2
 48
0.5
100
AcDbLine
 10
7861.809063614929
 20
2272.253112800582
 30
0.0
 11
7807.357358623483
 21
2275.249774247734
 31
0.0
  0
LINE
  5
16A2
330
406
100
AcDbEntity
  8
2-7搬入用開口
  6
PHANTOM2
 62
     2
 48
0.5
100
AcDbLine
 10
7863.140065110282
 20
2292.203328617245
 30
0.0
 11
7861.809063614929
 21
2272.253112800582
 31
0.0
  0
LINE
  5
16A3
330
406
100
AcDbEntity
  8
2-7搬入用開口
  6
PHANTOM2
 62
     2
 48
0.5
100
AcDbLine
 10
7383.849755517704
 20
2509.501351185365
 30
0.0
 11
7677.133240834125
 21
2493.23370760447
 31
0.0
  0
ELLIPSE
  5
16A4
330
406
100
AcDbEntity
  8
2-7搬入用開口
  6
PHANTOM2
 62
     2
100
AcDbEllipse
 10
7725.878284962417
 20
3013.332631856219
 30
0.0
 11
2.437389192576
 21
19.850941964142
 31
0.0
210
0.0
220
0.0
230
0.9999999999999998
 40
0.9085402786000001
 41
5.237106667275999
 42
6.439206983276998
  0
ELLIPSE
  5
16A5
330
406
100
AcDbEntity
  8
2-7搬入用開口
  6
PHANTOM2
 62
     2
100
AcDbEllipse
 10
7546.925219537678
 20
3009.371141285388
 30
0.0
 11
3.046737071838999
 21
24.813682188006
 31
0.0
210
0.0
220
0.0
230
1.0
 40
0.9085402786000001
 41
0.061084776926
 42
1.507525861883999
  0
ELLIPSE
  5
16A6
330
406
100
AcDbEntity
  8
2-7搬入用開口
  6
PHANTOM2
 62
     2
100
AcDbEllipse
 10
7632.052314913946
 20
2988.235704597867
 30
0.0
 11
4.874778385152
 21
39.70188392828401
 31
0.0
210
0.0
220
0.0
230
0.9999999999999998
 40
0.9085402786000001
 41
2.857125354858998
 42
3.682200091124998
  0
ELLIPSE
  5
16A7
330
406
100
AcDbEntity
  8
2-7搬入用開口
  6
PHANTOM2
 62
     2
100
AcDbEllipse
 10
7624.679422834057
 20
3048.704158158567
 30
0.0
 11
6.093474143676998
 21
49.62736437601201
 31
0.0
210
0.0
220
0.0
230
1.0
 40
0.9085402785999999
 41
3.071849641965
 42
3.471043374613999
  0
ELLIPSE
  5
16A8
330
406
100
AcDbEntity
  8
2-7搬入用開口
  6
PHANTOM2
 62
     2
100
AcDbEllipse
 10
7536.462259177112
 20
2950.322602407166
 30
0.0
 11
0.243738919258
 21
1.985094196414
 31
0.0
210
0.0
220
0.0
230
1.0
 40
0.9085402785999999
 41
0.3648324140030001
 42
3.506424801276998
  0
ELLIPSE
  5
16A9
330
406
100
AcDbEntity
  8
2-7搬入用開口
  6
PHANTOM2
 62
     2
100
AcDbEllipse
 10
7577.326804194076
 20
2961.889843223457
 30
0.0
 11
0.243738919258
 21
1.985094196414
 31
0.0
210
0.0
220
0.0
230
1.0
 40
0.9085402785999999
 41
3.506425067592999
 42
6.648017721182999
  0
ELLIPSE
  5
16AA
330
406
100
AcDbEntity
  8
2-7搬入用開口
  6
PHANTOM2
 62
     2
100
AcDbEllipse
 10
7536.29518040196
 20
2970.55462415919
 30
0.0
 11
0.243738919258
 21
1.985094196414
 31
0.0
210
0.0
220
0.0
230
1.0
 40
0.9085402785999999
 41
0.3648324140030001
 42
3.506424801276998
  0
ELLIPSE
  5
16AB
330
406
100
AcDbEntity
  8
2-7搬入用開口
  6
PHANTOM2
 62
     2
100
AcDbEllipse
 10
7536.631990101671
 20
2930.091167999034
 30
0.0
 11
0.243738919258
 21
1.985094196414
 31
0.0
210
0.0
220
0.0
230
1.0
 40
0.9085402785999999
 41
0.3648324140030001
 42
3.506424801276998
  0
ELLIPSE
  5
16AC
330
406
100
AcDbEntity
  8
2-7搬入用開口
  6
PHANTOM2
 62
     2
100
AcDbEllipse
 10
7577.495173219677
 20
2941.657994907367
 30
0.0
 11
0.243738919258
 21
1.985094196414
 31
0.0
210
0.0
220
0.0
230
1.0
 40
0.9085402785999999
 41
3.506425067592999
 42
6.648017721182999
  0
ELLIPSE
  5
16AD
330
406
100
AcDbEntity
  8
2-7搬入用開口
  6
PHANTOM2
 62
     2
100
AcDbEllipse
 10
7577.661802248401
 20
2921.426731136564
 30
0.0
 11
0.243738919258
 21
1.985094196414
 31
0.0
210
0.0
220
0.0
230
1.0
 40
0.9085402785999999
 41
3.063401828672
 42
6.204994482260999
  0
ELLIPSE
  5
16AE
330
406
100
AcDbEntity
  8
2-7搬入用開口
  6
PHANTOM2
 62
     2
100
AcDbEllipse
 10
7635.751059199318
 20
2836.120379402079
 30
0.0
 11
0.609347298144
 21
4.962735491034998
 31
0.0
210
0.0
220
0.0
230
0.9999999999999998
 40
0.9085402785999999
 41
0.4068850591960001
 42
1.977681119674999
  0
ELLIPSE
  5
16AF
330
406
100
AcDbEntity
  8
2-7搬入用開口
  6
PHANTOM2
 62
     2
100
AcDbEllipse
 10
7638.813445510696
 20
2824.180046817342
 30
0.0
 11
0.609347298144
 21
4.962735491034998
 31
0.0
210
0.0
220
0.0
230
0.9999999999999998
 40
0.9085402785999999
 41
1.977681385990998
 42
3.548477712785999
  0
ELLIPSE
  5
16B0
330
406
100
AcDbEntity
  8
2-7搬入用開口
  6
PHANTOM2
 62
     2
100
AcDbEllipse
 10
7688.476176574008
 20
2590.116587373128
 30
0.0
 11
1.218694596288
 21
9.925470982071001
 31
0.0
210
0.0
220
0.0
230
0.9999999999999998
 40
0.9085402786000001
 41
0.0
 42
6.283185307179585
  0
ELLIPSE
  5
16B1
330
406
100
AcDbEntity
  8
2-7搬入用開口
  6
PHANTOM2
 62
     2
100
AcDbEllipse
 10
7291.187593186903
 20
2471.62758407108
 30
0.0
 11
3.046737071838999
 21
24.813682188006
 31
0.0
210
0.0
220
0.0
230
1.0
 40
0.9085402786000001
 41
1.596741225768999
 42
3.374464636631
  0
ELLIPSE
  5
16B2
330
406
100
AcDbEntity
  8
2-7搬入用開口
  6
PHANTOM2
 62
     2
100
AcDbEllipse
 10
7324.722049490438
 20
2506.21816490927
 30
0.0
 11
0.609347298144
 21
4.962735491034998
 31
0.0
210
0.0
220
0.0
230
0.9999999999999998
 40
0.9085402785999999
 41
0.0
 42
6.283185307179585
  0
ELLIPSE
  5
16B3
330
406
100
AcDbEntity
  8
2-7搬入用開口
  6
PHANTOM2
 62
     2
100
AcDbEllipse
 10
7324.722049490438
 20
2506.21816490927
 30
0.0
 11
1.279629267990999
 21
10.421744057892
 31
0.0
210
0.0
220
0.0
230
0.9999999999999998
 40
0.9085402786000001
 41
0.0
 42
6.283185307179585
  0
ELLIPSE
  5
16B4
330
406
100
AcDbEntity
  8
2-7搬入用開口
  6
PHANTOM2
 62
     2
100
AcDbEllipse
 10
7639.471715570794
 20
2830.876600827679
 30
0.0
 11
0.365608436998
 21
2.977641767903998
 31
0.0
210
0.0
220
0.0
230
1.0
 40
0.9085402785999999
 41
0.0
 42
6.283185307179585
  0
ELLIPSE
  5
16B5
330
406
100
AcDbEntity
  8
2-7搬入用開口
  6
PHANTOM2
 62
     2
100
AcDbEllipse
 10
7639.471715570794
 20
2830.876600827679
 30
0.0
 11
0.776917645326
 21
6.327486449541998
 31
0.0
210
0.0
220
0.0
230
1.0
 40
0.9085402785999999
 41
0.0
 42
6.283185307179585
  0
ELLIPSE
  5
16B6
330
406
100
AcDbEntity
  8
2-7搬入用開口
  6
PHANTOM2
 62
     2
100
AcDbEllipse
 10
7345.886607603107
 20
2528.050731397042
 30
0.0
 11
1.218694596288
 21
9.925470982071001
 31
0.0
210
0.0
220
0.0
230
0.9999999999999998
 40
0.9085402786000001
 41
1.599093862275998
 42
3.295218017338
  0
ELLIPSE
  5
16B7
330
406
100
AcDbEntity
  8
2-7搬入用開口
  6
PHANTOM2
 62
     2
100
AcDbEllipse
 10
7300.796311897965
 20
2515.073381283971
 30
0.0
 11
0.9140209472159998
 21
7.444103236552999
 31
0.0
210
0.0
220
0.0
230
1.0
 40
0.9085402785999999
 41
0.53040273687
 42
1.538917074285
  0
ELLIPSE
  5
16B8
330
406
100
AcDbEntity
  8
2-7搬入用開口
  6
PHANTOM2
 62
     2
100
AcDbEllipse
 10
7299.291127913621
 20
2505.190098613929
 30
0.0
 11
0.9140209472159998
 21
7.444103236552999
 31
0.0
210
0.0
220
0.0
230
1.0
 40
0.9085402785999999
 41
1.538917340600999
 42
3.109713667395998
  0
ELLIPSE
  5
16B9
330
406
100
AcDbEntity
  8
2-7搬入用開口
  6
PHANTOM2
 62
     2
100
AcDbEllipse
 10
7296.896682585141
 20
2477.516534473873
 30
0.0
 11
0.609347298144
 21
4.962735491034998
 31
0.0
210
0.0
220
0.0
230
0.9999999999999998
 40
0.9085402785999999
 41
3.214791883998
 42
6.356384537588
  0
ELLIPSE
  5
16BA
330
406
100
AcDbEntity
  8
2-7搬入用開口
  6
PHANTOM2
 62
     2
100
AcDbEllipse
 10
7324.722049490438
 20
2506.21816490927
 30
0.0
 11
7.921516619227999
 21
64.51557558194799
 31
0.0
210
0.0
220
0.0
230
1.0
 40
0.9085402785999999
 41
2.759938084565999
 42
4.487034803105999
  0
ELLIPSE
  5
16BB
330
406
100
AcDbEntity
  8
2-7搬入用開口
  6
PHANTOM2
 62
     2
100
AcDbEllipse
 10
7324.722049490438
 20
2506.21816490927
 30
0.0
 11
7.921516619227999
 21
64.51557558194799
 31
0.0
210
0.0
220
0.0
230
1.0
 40
0.9085402785999999
 41
1.164234543676999
 42
2.035400342612
  0
ELLIPSE
  5
16BC
330
406
100
AcDbEntity
  8
2-7搬入用開口
  6
PHANTOM2
 62
     2
100
AcDbEllipse
 10
7324.722049490438
 20
2506.21816490927
 30
0.0
 11
43.28803689505798
 21
352.552768660296
 31
0.0
210
0.0
220
0.0
230
0.9999999999999998
 40
0.9085402786000001
 41
1.139089775611999
 42
1.402282529294
  0
ELLIPSE
  5
16BD
330
406
100
AcDbEntity
  8
2-7搬入用開口
  6
PHANTOM2
 62
     2
100
AcDbEllipse
 10
7324.722049490438
 20
2506.21816490927
 30
0.0
 11
40.241299590772
 21
327.739084579158
 31
0.0
210
0.0
220
0.0
230
0.9999999999999998
 40
0.9085402785999999
 41
4.436023550322
 42
4.650257549472
  0
ELLIPSE
  5
16BE
330
406
100
AcDbEntity
  8
2-7搬入用開口
  6
PHANTOM2
 62
     2
100
AcDbEllipse
 10
7324.722049490438
 20
2506.21816490927
 30
0.0
 11
40.241299590772
 21
327.739084579158
 31
0.0
210
0.0
220
0.0
230
0.9999999999999998
 40
0.9085402785999999
 41
4.710835942155998
 42
4.792910838525998
  0
ELLIPSE
  5
16BF
330
406
100
AcDbEntity
  8
2-7搬入用開口
  6
PHANTOM2
 62
     2
100
AcDbEllipse
 10
7324.722049490438
 20
2506.21816490927
 30
0.0
 11
36.58521556946
 21
297.9626697398138
 31
0.0
210
0.0
220
0.0
230
1.0
 40
0.9085402786000001
 41
4.713865554212
 42
4.794896491434998
  0
ELLIPSE
  5
16C0
330
406
100
AcDbEntity
  8
2-7搬入用開口
  6
PHANTOM2
 62
     2
100
AcDbEllipse
 10
7324.722049490438
 20
2506.21816490927
 30
0.0
 11
35.36651469709399
 21
288.037147643191
 31
0.0
210
0.0
220
0.0
230
1.0
 40
0.9085402786000001
 41
4.715012311377
 42
4.795646970229999
  0
ELLIPSE
  5
16C1
330
406
100
AcDbEntity
  8
2-7搬入用開口
  6
PHANTOM2
 62
     2
100
AcDbEllipse
 10
7324.722049490438
 20
2506.21816490927
 30
0.0
 11
36.58521556946
 21
297.9626697398138
 31
0.0
210
0.0
220
0.0
230
1.0
 40
0.9085402786000001
 41
4.420697857197
 42
4.647231133208999
  0
ELLIPSE
  5
16C2
330
406
100
AcDbEntity
  8
2-7搬入用開口
  6
PHANTOM2
 62
     2
100
AcDbEllipse
 10
7324.722049490438
 20
2506.21816490927
 30
0.0
 11
35.36651469709399
 21
288.037147643191
 31
0.0
210
0.0
220
0.0
230
1.0
 40
0.9085402786000001
 41
4.414872458628
 42
4.646080647617999
  0
ELLIPSE
  5
16C3
330
406
100
AcDbEntity
  8
2-7搬入用開口
  6
PHANTOM2
 62
     2
100
AcDbEllipse
 10
7324.722049490438
 20
2506.21816490927
 30
0.0
 11
35.36651469709399
 21
288.037147643191
 31
0.0
210
0.0
220
0.0
230
1.0
 40
0.9085402786000001
 41
4.998961476278998
 42
5.562915131875
  0
ELLIPSE
  5
16C4
330
406
100
AcDbEntity
  8
2-7搬入用開口
  6
PHANTOM2
 62
     2
100
AcDbEllipse
 10
7324.722049490438
 20
2506.21816490927
 30
0.0
 11
35.36651469709399
 21
288.037147643191
 31
0.0
210
0.0
220
0.0
230
1.0
 40
0.9085402786000001
 41
5.614609485477999
 42
6.634079534985
  0
ELLIPSE
  5
16C5
330
406
100
AcDbEntity
  8
2-7搬入用開口
  6
PHANTOM2
 62
     2
100
AcDbEllipse
 10
7324.722049490438
 20
2506.21816490927
 30
0.0
 11
35.36651469709399
 21
288.037147643191
 31
0.0
210
0.0
220
0.0
230
1.0
 40
0.9085402786000001
 41
0.36467795066
 42
1.126566793217999
  0
ELLIPSE
  5
16C6
330
406
100
AcDbEntity
  8
2-7搬入用開口
  6
PHANTOM2
 62
     2
100
AcDbEllipse
 10
7531.941434824971
 20
3283.081935409291
 30
0.0
 11
89.87873002106899
 21
732.003513797988
 31
0.0
210
0.0
220
0.0
230
1.0
 40
0.9085402785999999
 41
3.587314590961998
 42
3.597493991596999
  0
ELLIPSE
  5
16C7
330
406
100
AcDbEntity
  8
2-7搬入用開口
  6
PHANTOM2
 62
     2
100
AcDbEllipse
 10
7747.871783307634
 20
2577.849861898375
 30
0.0
 11
1.828041894431998
 21
14.888206473106
 31
0.0
210
0.0
220
0.0
230
0.9999999999999998
 40
0.9085402785999999
 41
0.991420955277
 42
2.963850736594998
  0
ELLIPSE
  5
16C8
330
406
100
AcDbEntity
  8
2-7搬入用開口
  6
PHANTOM2
 62
     2
100
AcDbEllipse
 10
7531.941434824971
 20
3283.081935409291
 30
0.0
 11
92.925456167884
 21
756.8171070088119
 31
0.0
210
0.0
220
0.0
230
1.0
 40
0.9085402785999995
 41
3.5860389368
 42
3.595883844401999
  0
ELLIPSE
  5
16C9
330
406
100
AcDbEntity
  8
2-7搬入用開口
  6
PHANTOM2
 62
     2
100
AcDbEllipse
 10
7324.722049490438
 20
2506.21816490927
 30
0.0
 11
7.921516619227999
 21
64.51557558194799
 31
0.0
210
0.0
220
0.0
230
1.0
 40
0.9085402785999999
 41
0.061086641138
 42
0.327013662311
  0
ELLIPSE
  5
16CA
330
406
100
AcDbEntity
  8
2-7搬入用開口
  6
PHANTOM2
 62
     2
100
AcDbEllipse
 10
7324.722049490438
 20
2506.21816490927
 30
0.0
 11
7.921516619227999
 21
64.51557558194799
 31
0.0
210
0.0
220
0.0
230
1.0
 40
0.9085402785999999
 41
0.388561711948
 42
1.102686227723999
  0
ELLIPSE
  5
16CB
330
406
100
AcDbEntity
  8
2-7搬入用開口
  6
PHANTOM2
 62
     2
100
AcDbEllipse
 10
7248.52067086518
 20
2865.607798321054
 30
0.0
 11
0.4265431377570001
 21
3.473915080365998
 31
0.0
210
0.0
220
0.0
230
1.0
 40
0.9085402785999999
 41
1.63189548479
 42
4.77348813838
  0
ELLIPSE
  5
16CC
330
406
100
AcDbEntity
  8
2-7搬入用開口
  6
PHANTOM2
 62
     2
100
AcDbEllipse
 10
7248.855807892178
 20
2870.594461010762
 30
0.0
 11
0.304673649072
 21
2.481367745517998
 31
0.0
210
0.0
220
0.0
230
0.9999999999999998
 40
0.9085402785999999
 41
0.0
 42
6.283185307179585
  0
ELLIPSE
  5
16CD
330
406
100
AcDbEntity
  8
2-7搬入用開口
  6
PHANTOM2
 62
     2
100
AcDbEllipse
 10
7249.1874507001
 20
2875.582079711817
 30
0.0
 11
0.4265431377570001
 21
3.473915080365998
 31
0.0
210
0.0
220
0.0
230
1.0
 40
0.9085402785999999
 41
4.77348813838
 42
5.548681334797
  0
ELLIPSE
  5
16CE
330
406
100
AcDbEntity
  8
2-7搬入用開口
  6
PHANTOM2
 62
     2
100
AcDbEllipse
 10
7249.1874507001
 20
2875.582079711817
 30
0.0
 11
0.4265431377570001
 21
3.473915080365998
 31
0.0
210
0.0
220
0.0
230
1.0
 40
0.9085402785999999
 41
0.8567020220579999
 42
1.631895218474
  0
ELLIPSE
  5
16CF
330
406
100
AcDbEntity
  8
2-7搬入用開口
  6
PHANTOM2
 62
     2
100
AcDbEllipse
 10
7478.067809355097
 20
2893.025632397643
 30
0.0
 11
0.304673649072
 21
2.481367745517998
 31
0.0
210
0.0
220
0.0
230
0.9999999999999998
 40
0.9085402785999999
 41
3.202731759001998
 42
6.344324412591998
  0
ELLIPSE
  5
16D0
330
406
100
AcDbEntity
  8
2-7搬入用開口
  6
PHANTOM2
 62
     2
100
AcDbEllipse
 10
7431.193013331482
 20
2873.078612617116
 30
0.0
 11
0.4265431377570001
 21
3.473915080365998
 31
0.0
210
0.0
220
0.0
230
1.0
 40
0.9085402785999999
 41
0.0
 42
6.283185307179585
  0
ELLIPSE
  5
16D1
330
406
100
AcDbEntity
  8
2-7搬入用開口
  6
PHANTOM2
 62
     2
100
AcDbEllipse
 10
7324.722049490438
 20
2506.21816490927
 30
0.0
 11
36.58521556946
 21
297.9626697398138
 31
0.0
210
0.0
220
0.0
230
1.0
 40
0.9085402786000001
 41
0.364450250387
 42
1.126798221917
  0
ELLIPSE
  5
16D2
330
406
100
AcDbEntity
  8
2-7搬入用開口
  6
PHANTOM2
 62
     2
100
AcDbEllipse
 10
7324.722049490438
 20
2506.21816490927
 30
0.0
 11
36.58521556946
 21
297.9626697398138
 31
0.0
210
0.0
220
0.0
230
1.0
 40
0.9085402786000001
 41
4.991314209207999
 42
5.563778262383998
  0
ELLIPSE
  5
16D3
330
406
100
AcDbEntity
  8
2-7搬入用開口
  6
PHANTOM2
 62
     2
100
AcDbEllipse
 10
7324.722049490438
 20
2506.21816490927
 30
0.0
 11
36.58521556946
 21
297.9626697398138
 31
0.0
210
0.0
220
0.0
230
1.0
 40
0.9085402786000001
 41
5.613750083393999
 42
6.634310963683999
  0
ELLIPSE
  5
16D4
330
406
100
AcDbEntity
  8
2-7搬入用開口
  6
PHANTOM2
 62
     2
100
AcDbEllipse
 10
7324.722049490438
 20
2506.21816490927
 30
0.0
 11
39.631952873746
 21
322.776353820952
 31
0.0
210
0.0
220
0.0
230
1.0
 40
0.9085402786000001
 41
1.139610423604999
 42
1.333099463127999
  0
ELLIPSE
  5
16D5
330
406
100
AcDbEntity
  8
2-7搬入用開口
  6
PHANTOM2
 62
     2
100
AcDbEllipse
 10
7324.722049490438
 20
2506.21816490927
 30
0.0
 11
39.631952873746
 21
322.776353820952
 31
0.0
210
0.0
220
0.0
230
1.0
 40
0.9085402786000001
 41
4.974295544577999
 42
5.565699200477999
  0
ELLIPSE
  5
16D6
330
406
100
AcDbEntity
  8
2-7搬入用開口
  6
PHANTOM2
 62
     2
100
AcDbEllipse
 10
7324.722049490438
 20
2506.21816490927
 30
0.0
 11
39.631952873746
 21
322.776353820952
 31
0.0
210
0.0
220
0.0
230
1.0
 40
0.9085402786000001
 41
5.611828612667999
 42
6.634822823246
  0
ELLIPSE
  5
16D7
330
406
100
AcDbEntity
  8
2-7搬入用開口
  6
PHANTOM2
 62
     2
100
AcDbEllipse
 10
7324.722049490438
 20
2506.21816490927
 30
0.0
 11
43.28803689505798
 21
352.552768660296
 31
0.0
210
0.0
220
0.0
230
0.9999999999999998
 40
0.9085402786000001
 41
0.363416943884
 42
1.127828066311
  0
ELLIPSE
  5
16D8
330
406
100
AcDbEntity
  8
2-7搬入用開口
  6
PHANTOM2
 62
     2
100
AcDbEllipse
 10
7227.000230296953
 20
2884.311911286361
 30
0.0
 11
0.4265431377570001
 21
3.473915080365998
 31
0.0
210
0.0
220
0.0
230
1.0
 40
0.9085402785999999
 41
0.0
 42
6.283185307179585
  0
ELLIPSE
  5
16D9
330
406
100
AcDbEntity
  8
2-7搬入用開口
  6
PHANTOM2
 62
     2
100
AcDbEllipse
 10
7251.186462853119
 20
2905.505027454283
 30
0.0
 11
0.304673649072
 21
2.481367745517998
 31
0.0
210
0.0
220
0.0
230
0.9999999999999998
 40
0.9085402785999999
 41
4.773528085796999
 42
7.915120473069999
  0
ELLIPSE
  5
16DA
330
406
100
AcDbEntity
  8
2-7搬入用開口
  6
PHANTOM2
 62
     2
100
AcDbEllipse
 10
7183.1197625871
 20
2909.250674021801
 30
0.0
 11
0.304673649072
 21
2.481367745517998
 31
0.0
210
0.0
220
0.0
230
0.9999999999999998
 40
0.9085402785999999
 41
0.061139105412
 42
3.202731492685998
  0
ELLIPSE
  5
16DB
330
406
100
AcDbEntity
  8
2-7搬入用開口
  6
PHANTOM2
 62
     2
100
AcDbEllipse
 10
7574.077079605224
 20
2793.899138419861
 30
0.0
 11
0.365608436998
 21
2.977641767903998
 31
0.0
210
0.0
220
0.0
230
1.0
 40
0.9085402785999999
 41
0.0
 42
6.283185307179585
  0
ELLIPSE
  5
16DC
330
406
100
AcDbEntity
  8
2-7搬入用開口
  6
PHANTOM2
 62
     2
100
AcDbEllipse
 10
7574.077079605224
 20
2793.899138419861
 30
0.0
 11
0.776917645326
 21
6.327486449541998
 31
0.0
210
0.0
220
0.0
230
1.0
 40
0.9085402785999999
 41
0.0
 42
6.283185307179585
  0
ELLIPSE
  5
16DD
330
406
100
AcDbEntity
  8
2-7搬入用開口
  6
PHANTOM2
 62
     2
100
AcDbEllipse
 10
7574.077079605224
 20
2793.899138419861
 30
0.0
 11
1.221007912072
 21
9.944311427209999
 31
0.0
210
0.0
220
0.0
230
1.0
 40
0.9085402785999999
 41
5.588738207069
 42
8.730330594341999
  0
ELLIPSE
  5
16DE
330
406
100
AcDbEntity
  8
2-7搬入用開口
  6
PHANTOM2
 62
     2
100
AcDbEllipse
 10
7324.722049490438
 20
2506.21816490927
 30
0.0
 11
43.28803689505798
 21
352.552768660296
 31
0.0
210
0.0
220
0.0
230
0.9999999999999998
 40
0.9085402786000001
 41
5.609879178749999
 42
6.635341074393999
  0
ELLIPSE
  5
16DF
330
406
100
AcDbEntity
  8
2-7搬入用開口
  6
PHANTOM2
 62
     2
100
AcDbEllipse
 10
7324.722049490438
 20
2506.21816490927
 30
0.0
 11
43.28803689505798
 21
352.552768660296
 31
0.0
210
0.0
220
0.0
230
0.9999999999999998
 40
0.9085402786000001
 41
4.957094453414
 42
5.567646237551
  0
ELLIPSE
  5
16E0
330
406
100
AcDbEntity
  8
2-7搬入用開口
  6
PHANTOM2
 62
     2
100
AcDbEllipse
 10
7761.863235471547
 20
2436.920097584419
 30
0.0
 11
1.523368535918999
 21
12.406841094003
 31
0.0
210
0.0
220
0.0
230
1.0
 40
0.9085402785999999
 41
0.0
 42
6.283185307179585
  0
ELLIPSE
  5
16E1
330
406
100
AcDbEntity
  8
2-7搬入用開口
  6
PHANTOM2
 62
     2
100
AcDbEllipse
 10
7761.863235471547
 20
2436.920097584419
 30
0.0
 11
3.960758309613999
 21
32.257787790974
 31
0.0
210
0.0
220
0.0
230
1.0
 40
0.9085402785999999
 41
4.135355592728998
 42
9.485853416631
  0
ELLIPSE
  5
16E2
330
406
100
AcDbEntity
  8
2-7搬入用開口
  6
PHANTOM2
 62
     2
100
AcDbEllipse
 10
7761.863235471547
 20
2436.920097584419
 30
0.0
 11
7.921516619227999
 21
64.51557558194799
 31
0.0
210
0.0
220
0.0
230
1.0
 40
0.9085402785999999
 41
3.934088791243
 42
9.858819806232999
  0
ELLIPSE
  5
16E3
330
406
100
AcDbEntity
  8
2-7搬入用開口
  6
PHANTOM2
 62
     2
100
AcDbEllipse
 10
7761.863235471547
 20
2436.920097584419
 30
0.0
 11
13.405638932038
 21
109.18016755086
 31
0.0
210
0.0
220
0.0
230
1.0
 40
0.9085402785999999
 41
3.854454415694998
 42
9.938447257562
  0
ELLIPSE
  5
16E4
330
406
100
AcDbEntity
  8
2-7搬入用開口
  6
PHANTOM2
 62
     2
100
AcDbEllipse
 10
7835.248645820731
 20
2283.725562136057
 30
0.0
 11
1.218694596288
 21
9.925470982071001
 31
0.0
210
0.0
220
0.0
230
0.9999999999999998
 40
0.9085402786000001
 41
0.0
 42
6.283185307179585
  0
ELLIPSE
  5
16E5
330
406
100
AcDbEntity
  8
2-7搬入用開口
  6
PHANTOM2
 62
     2
100
AcDbEllipse
 10
7051.365482849114
 20
2692.204136655123
 30
0.0
 11
0.2437030061460001
 21
1.984801707589999
 31
0.0
210
0.0
220
0.0
230
1.0
 40
0.9085402785999999
 41
5.845754291233998
 42
8.987346944823999
  0
ELLIPSE
  5
16E6
330
406
100
AcDbEntity
  8
2-7搬入用開口
  6
PHANTOM2
 62
     2
100
AcDbEllipse
 10
7019.464611999781
 20
2652.770315799301
 30
0.0
 11
5.944227619165999
 21
48.411848977225
 31
0.0
210
0.0
220
0.0
230
0.9999999999999998
 40
0.9085402785999999
 41
3.202553327208998
 42
4.005372558877
  0
ELLIPSE
  5
16E7
330
406
100
AcDbEntity
  8
2-7搬入用開口
  6
PHANTOM2
 62
     2
100
AcDbEllipse
 10
7324.722049490438
 20
2506.21816490927
 30
0.0
 11
39.631952873746
 21
322.776353820952
 31
0.0
210
0.0
220
0.0
230
1.0
 40
0.9085402786000001
 41
0.363937858193
 42
1.127304222523999
  0
LWPOLYLINE
  5
16E8
330
406
100
AcDbEntity
  8
2-7搬入用開口
  6
Continuous
 62
     2
100
AcDbPolyline
 90
        2
 70
     1
 43
8.0
 10
7320.721999999999
 20
2506.218
 42
1.0
 10
7328.722
 20
2506.218
 42
1.0
  0
ARC
  5
16EC
330
406
100
AcDbEntity
  8
2-7搬入用開口
  6
PHANTOM2
 62
     2
100
AcDbCircle
 10
7134.998263774152
 20
3641.149495193673
 30
0.0
 40
1353.651618154995
100
AcDbArc
 50
301.874350897449
 51
322.348312752001
  0
ARC
  5
16ED
330
406
100
AcDbEntity
  8
2-7搬入用開口
  6
PHANTOM2
 62
     2
100
AcDbCircle
 10
7193.96252491899
 20
3591.349924292134
 30
0.0
 40
1256.474734463742
100
AcDbArc
 50
300.768044833983
 51
323.464609904648
  0
ARC
  5
16EE
330
406
100
AcDbEntity
  8
2-7搬入用開口
  6
PHANTOM2
 62
     2
100
AcDbCircle
 10
7350.775968956553
 20
3614.341619586468
 30
0.0
 40
1119.905475313851
100
AcDbArc
 50
290.867033693018
 51
319.245704271343
  0
ARC
  5
16EF
330
406
100
AcDbEntity
  8
2-7搬入用開口
  6
PHANTOM2
 62
     2
100
AcDbCircle
 10
7350.775968956553
 20
3614.341619586468
 30
0.0
 40
1099.305444753851
100
AcDbArc
 50
290.989146911285
 51
320.253322115716
  0
LINE
  5
16F0
330
406
100
AcDbEntity
  8
2-7搬入用開口
  6
PHANTOM2
 62
     2
 48
0.5
100
AcDbLine
 10
8196.008737384564
 20
2911.451850105521
 30
0.0
 11
8194.892365284202
 21
2921.567991191163
 31
0.0
  0
ARC
  5
16F1
330
406
100
AcDbEntity
  8
2-7搬入用開口
  6
PHANTOM2
 62
     2
100
AcDbCircle
 10
8179.260353228427
 20
2895.33041373045
 30
0.0
 40
23.246700467749
100
AcDbArc
 50
328.6912728447461
 51
403.9072922799439
  0
LINE
  5
16F2
330
406
100
AcDbEntity
  8
2-7搬入用開口
  6
PHANTOM2
 62
     2
 48
0.5
100
AcDbLine
 10
6982.625416231636
 20
2486.211159454011
 30
0.0
 11
7296.617251373532
 21
2472.526543862363
 31
0.0
  0
LINE
  5
16F3
330
406
100
AcDbEntity
  8
2-7搬入用開口
  6
PHANTOM2
 62
     2
 48
0.5
100
AcDbLine
 10
7297.173898156867
 20
2482.506646969191
 30
0.0
 11
6983.18298242101
 21
2496.191710358025
 31
0.0
  0
ELLIPSE
  5
16F4
330
406
100
AcDbEntity
  8
2-7搬入用開口
  6
PHANTOM2
 62
     2
100
AcDbEllipse
 10
6982.903617128545
 20
2491.202707140454
 30
0.0
 11
0.609347298144
 21
4.962735491034998
 31
0.0
210
0.0
220
0.0
230
0.9999999999999998
 40
0.9085402785999999
 41
0.073199230408
 42
3.214791617681999
  0
ELLIPSE
  5
16F5
330
406
100
AcDbEntity
  8
2-7搬入用開口
  6
PHANTOM2
 62
     2
100
AcDbEllipse
 10
7324.722049490438
 20
2506.21816490927
 30
0.0
 11
40.241299590772
 21
327.739084579158
 31
0.0
210
0.0
220
0.0
230
0.9999999999999998
 40
0.9085402785999999
 41
1.748147368247998
 42
4.420685872972
  0
ELLIPSE
  5
16F6
330
406
100
AcDbEntity
  8
2-7搬入用開口
  6
PHANTOM2
 62
     2
100
AcDbEllipse
 10
7324.722049490438
 20
2506.21816490927
 30
0.0
 11
36.58521556946
 21
297.9626697398138
 31
0.0
210
0.0
220
0.0
230
1.0
 40
0.9085402786000001
 41
1.758776038643
 42
4.403781457953
  0
ELLIPSE
  5
16F7
330
406
100
AcDbEntity
  8
2-7搬入用開口
  6
PHANTOM2
 62
     2
100
AcDbEllipse
 10
7324.722049490438
 20
2506.21816490927
 30
0.0
 11
35.36651469709399
 21
288.037147643191
 31
0.0
210
0.0
220
0.0
230
1.0
 40
0.9085402786000001
 41
1.762810683204
 42
4.397353652346
  0
ELLIPSE
  5
16F8
330
406
100
AcDbEntity
  8
2-7搬入用開口
  6
PHANTOM2
 62
     2
100
AcDbEllipse
 10
7324.722049490438
 20
2506.21816490927
 30
0.0
 11
35.36651469709399
 21
288.037147643191
 31
0.0
210
0.0
220
0.0
230
1.0
 40
0.9085402786000001
 41
1.140350782387999
 42
1.728163362392998
  0
ELLIPSE
  5
16F9
330
406
100
AcDbEntity
  8
2-7搬入用開口
  6
PHANTOM2
 62
     2
100
AcDbEllipse
 10
7324.722049490438
 20
2506.21816490927
 30
0.0
 11
36.58521556946
 21
297.9626697398138
 31
0.0
210
0.0
220
0.0
230
1.0
 40
0.9085402786000001
 41
1.140123082114999
 42
1.725294702208999
  0
ELLIPSE
  5
16FA
330
406
100
AcDbEntity
  8
2-7搬入用開口
  6
PHANTOM2
 62
     2
100
AcDbEllipse
 10
7324.722049490438
 20
2506.21816490927
 30
0.0
 11
40.241299590772
 21
327.739084579158
 31
0.0
210
0.0
220
0.0
230
0.9999999999999998
 40
0.9085402785999999
 41
1.356615974501999
 42
1.717734498892999
  0
TEXT
  5
62A7E
330
406
100
AcDbEntity
  8
2-5DIM
 62
     3
 48
0.5
370
    -3
100
AcDbText
 10
9185.286103165395
 20
255.9198069521809
 30
0.0
 40
106.59
  1
鋼鈑商事株式会社
 41
1.399999999999999
100
AcDbText
  0
LINE
  5
62AA6
330
406
100
AcDbEntity
  8
2-53DIM
  6
Continuous
 62
     3
 48
0.5
100
AcDbLine
 10
7110.744054671974
 20
4827.269299183615
 30
0.0
 11
7410.744054671972
 21
4827.269299183615
 31
0.0
  0
TEXT
  5
62AA7
330
406
100
AcDbEntity
  8
2-53DIM
 62
     3
370
    -3
100
AcDbText
 10
7207.102886666665
 20
4847.269
 30
0.0
 40
71.06
  1
300
 41
0.754
 72
     1
 11
7269.611999999999
 21
4847.269
 31
0.0
100
AcDbText
 73
     1
  0
LINE
  5
62AAA
330
406
100
AcDbEntity
  8
2-53DIM
  6
Continuous
 62
     3
 48
0.5
100
AcDbLine
 10
4310.744054787392
 20
4827.269299183615
 30
0.0
 11
4610.744054787391
 21
4827.269299183615
 31
0.0
  0
TEXT
  5
62AAB
330
406
100
AcDbEntity
  8
2-53DIM
 62
     3
370
    -3
100
AcDbText
 10
4407.102886782084
 20
4847.269
 30
0.0
 40
71.06
  1
300
 41
0.754
 72
     1
 11
4469.612000115417
 21
4847.269
 31
0.0
100
AcDbText
 73
     1
  0
ENDSEC
  0
SECTION
  2
OBJECTS
  0
DICTIONARY
  5
C
330
0
100
AcDbDictionary
281
     1
  3
ACAD_COLOR
350
62A35
  3
ACAD_GROUP
350
D
  3
ACAD_LAYOUT
350
62995
  3
ACAD_MATERIAL
350
62A0B
  3
ACAD_MLEADERSTYLE
350
629DC
  3
ACAD_MLINESTYLE
350
E
  3
ACAD_PLOTSETTINGS
350
62A3A
  3
ACAD_PLOTSTYLENAME
350
62A09
  3
ACAD_SCALELIST
350
62998
  3
ACAD_TABLESTYLE
350
62A36
  3
ACAD_VISUALSTYLE
350
62A24
  3
ACDB_RECOMPOSE_DATA
350
62A43
  3
AcDbVariableDictionary
350
629DA
  3
AEC_PROPERTY_SET_DEFS
350
62A7A
  3
DWGPROPS
350
62AAD
  0
DICTIONARY
  5
62A51
330
40D
100
AcDbDictionary
280
     1
281
     1
  3
ADSK_XREC_LAYER_RECONCILED
360
62A52
  0
DICTIONARY
  5
62A53
330
40E
100
AcDbDictionary
280
     1
281
     1
  3
ADSK_XREC_LAYER_RECONCILED
360
62A54
  0
DICTIONARY
  5
62A55
330
40F
100
AcDbDictionary
280
     1
281
     1
  3
ADSK_XREC_LAYER_RECONCILED
360
62A56
  0
DICTIONARY
  5
62A57
330
410
100
AcDbDictionary
280
     1
281
     1
  3
ADSK_XREC_LAYER_RECONCILED
360
62A58
  0
DICTIONARY
  5
62A59
330
411
100
AcDbDictionary
280
     1
281
     1
  3
ADSK_XREC_LAYER_RECONCILED
360
62A5A
  0
DICTIONARY
  5
62A5B
330
412
100
AcDbDictionary
280
     1
281
     1
  3
ADSK_XREC_LAYER_RECONCILED
360
62A5C
  0
DICTIONARY
  5
62A5D
330
413
100
AcDbDictionary
280
     1
281
     1
  3
ADSK_XREC_LAYER_RECONCILED
360
62A5E
  0
DICTIONARY
  5
62A5F
330
414
100
AcDbDictionary
280
     1
281
     1
  3
ADSK_XREC_LAYER_RECONCILED
360
62A60
  0
DICTIONARY
  5
62A61
330
415
100
AcDbDictionary
280
     1
281
     1
  3
ADSK_XREC_LAYER_RECONCILED
360
62A62
  0
DICTIONARY
  5
62A63
330
416
100
AcDbDictionary
280
     1
281
     1
  3
ADSK_XREC_LAYER_RECONCILED
360
62A64
  0
DICTIONARY
  5
62A65
330
417
100
AcDbDictionary
280
     1
281
     1
  3
ADSK_XREC_LAYER_RECONCILED
360
62A66
  0
DICTIONARY
  5
62A67
330
418
100
AcDbDictionary
280
     1
281
     1
  3
ADSK_XREC_LAYER_RECONCILED
360
62A68
  0
DICTIONARY
  5
62A69
330
419
100
AcDbDictionary
280
     1
281
     1
  3
ADSK_XREC_LAYER_RECONCILED
360
62A6A
  0
DICTIONARY
  5
62A72
330
62A71
100
AcDbDictionary
280
     1
281
     1
  0
DICTIONARY
  5
62A00
330
406
100
AcDbDictionary
280
     1
281
     1
  3
ACAD_LAYOUTSELFREF
360
62A01
  0
DICTIONARY
  5
62A02
330
407
100
AcDbDictionary
280
     1
281
     1
  3
ACAD_LAYOUTSELFREF
360
62A03
  0
DICTIONARY
  5
62A35
102
{ACAD_REACTORS
330
C
102
}
330
C
100
AcDbDictionary
281
     1
  0
DICTIONARY
  5
D
330
C
100
AcDbDictionary
281
     1
  0
DICTIONARY
  5
62995
102
{ACAD_REACTORS
330
C
102
}
330
C
100
AcDbDictionary
281
     1
  3
Layout1
350
62997
  3
Model
350
62996
  0
DICTIONARY
  5
62A0B
102
{ACAD_REACTORS
330
C
102
}
330
C
100
AcDbDictionary
281
     1
  3
ByBlock
350
62A14
  3
ByLayer
350
62A0C
  3
Global
350
62A1C
  0
DICTIONARY
  5
629DC
102
{ACAD_REACTORS
330
C
102
}
330
C
100
AcDbDictionary
281
     1
  3
Standard
350
62A38
  0
DICTIONARY
  5
E
330
C
100
AcDbDictionary
281
     1
  3
STANDARD
350
13
  0
DICTIONARY
  5
62A3A
102
{ACAD_REACTORS
330
C
102
}
330
C
100
AcDbDictionary
281
     1
  0
ACDBDICTIONARYWDFLT
  5
62A09
102
{ACAD_REACTORS
330
C
102
}
330
C
100
AcDbDictionary
281
     1
  3
Color_7
350
62A3B
  3
Normal
350
62A0A
100
AcDbDictionaryWithDefault
340
62A0A
  0
DICTIONARY
  5
62998
102
{ACAD_REACTORS
330
C
102
}
330
C
100
AcDbDictionary
281
     1
  3
A0
350
62999
  3
A1
350
6299A
  3
A2
350
6299B
  3
A3
350
6299C
  3
A4
350
6299D
  3
A5
350
6299E
  3
A6
350
6299F
  3
A7
350
629A0
  3
A8
350
629A1
  3
A9
350
629A2
  3
B0
350
629A3
  3
B1
350
629A4
  3
B2
350
629A5
  3
B3
350
629A6
  3
B4
350
629A7
  3
B5
350
629A8
  3
B6
350
629A9
  3
B7
350
629AA
  3
B8
350
629AB
  3
B9
350
629AC
  3
C0
350
629AD
  3
C1
350
629AE
  3
C2
350
629AF
  3
C3
350
629B0
  3
C4
350
629B1
  3
C5
350
629B2
  3
C6
350
629B3
  3
C7
350
629B4
  3
C8
350
629B5
  3
C9
350
629B6
  3
D0
350
629B7
  3
D1
350
629B8
  3
D2
350
629B9
  0
DICTIONARY
  5
62A36
102
{ACAD_REACTORS
330
C
102
}
330
C
100
AcDbDictionary
281
     1
  3
Standard
350
62A37
  0
DICTIONARY
  5
62A24
102
{ACAD_REACTORS
330
C
102
}
330
C
100
AcDbDictionary
281
     1
  3
2dWireframe
350
62A2A
  3
3D Hidden
350
62A2C
  3
3dWireframe
350
62A2B
  3
Basic
350
62A29
  3
Brighten
350
62A30
  3
ColorChange
350
62A34
  3
Conceptual
350
62A2D
  3
Dim
350
62A2F
  3
Facepattern
350
62A33
  3
Flat
350
62A25
  3
FlatWithEdges
350
62A26
  3
Gouraud
350
62A27
  3
GouraudWithEdges
350
62A28
  3
Linepattern
350
62A32
  3
Realistic
350
62A2E
  3
Thicken
350
62A31
  0
XRECORD
  5
62A43
102
{ACAD_REACTORS
330
C
102
}
330
C
100
AcDbXrecord
280
     1
 90
        1
330
62A37
  0
DICTIONARY
  5
629DA
102
{ACAD_REACTORS
330
C
102
}
330
C
100
AcDbDictionary
281
     1
  3
CANNOSCALE
350
629DD
  3
CMLEADERSTYLE
350
62A45
  3
CTABLESTYLE
350
62A44
  3
DIMASSOC
350
62A84
  3
INDEXCTL
350
62A83
  3
LAYEREVAL
350
62A48
  3
LAYERNOTIFY
350
62A49
  3
LIGHTINGUNITS
350
62A47
  3
MSLTSCALE
350
62A46
  3
SORTENTS
350
62A82
  0
DICTIONARY
  5
62A7A
102
{ACAD_REACTORS
330
C
102
}
330
C
100
AcDbDictionary
281
     1
  0
XRECORD
  5
62AAD
102
{ACAD_REACTORS
330
C
102
}
330
C
100
AcDbXrecord
280
     1
  1
DWGPROPS COOKIE
  2

  3

  4

  6

  7

  8
c0400301080
  9

300
=
301
=
302
=
303
=
304
=
305
=
306
=
307
=
308
=
309
=
 40
0.0097030555555556
 41
2444972.375
 42
2458740.533252929
  1

 90
        0
  0
XRECORD
  5
62A52
102
{ACAD_REACTORS
330
62A51
102
}
330
62A51
100
AcDbXrecord
280
     1
290
     1
  0
XRECORD
  5
62A54
102
{ACAD_REACTORS
330
62A53
102
}
330
62A53
100
AcDbXrecord
280
     1
290
     1
  0
XRECORD
  5
62A56
102
{ACAD_REACTORS
330
62A55
102
}
330
62A55
100
AcDbXrecord
280
     1
290
     1
  0
XRECORD
  5
62A58
102
{ACAD_REACTORS
330
62A57
102
}
330
62A57
100
AcDbXrecord
280
     1
290
     1
  0
XRECORD
  5
62A5A
102
{ACAD_REACTORS
330
62A59
102
}
330
62A59
100
AcDbXrecord
280
     1
290
     1
  0
XRECORD
  5
62A5C
102
{ACAD_REACTORS
330
62A5B
102
}
330
62A5B
100
AcDbXrecord
280
     1
290
     1
  0
XRECORD
  5
62A5E
102
{ACAD_REACTORS
330
62A5D
102
}
330
62A5D
100
AcDbXrecord
280
     1
290
     1
  0
XRECORD
  5
62A60
102
{ACAD_REACTORS
330
62A5F
102
}
330
62A5F
100
AcDbXrecord
280
     1
290
     1
  0
XRECORD
  5
62A62
102
{ACAD_REACTORS
330
62A61
102
}
330
62A61
100
AcDbXrecord
280
     1
290
     1
  0
XRECORD
  5
62A64
102
{ACAD_REACTORS
330
62A63
102
}
330
62A63
100
AcDbXrecord
280
     1
290
     1
  0
XRECORD
  5
62A66
102
{ACAD_REACTORS
330
62A65
102
}
330
62A65
100
AcDbXrecord
280
     1
290
     1
  0
XRECORD
  5
62A68
102
{ACAD_REACTORS
330
62A67
102
}
330
62A67
100
AcDbXrecord
280
     1
290
     1
  0
XRECORD
  5
62A6A
102
{ACAD_REACTORS
330
62A69
102
}
330
62A69
100
AcDbXrecord
280
     1
290
     1
  0
XRECORD
  5
62A01
102
{ACAD_REACTORS
330
62A00
102
}
330
62A00
100
AcDbXrecord
280
     1
340
406
  0
XRECORD
  5
62A03
102
{ACAD_REACTORS
330
62A02
102
}
330
62A02
100
AcDbXrecord
280
     1
340
407
  0
LAYOUT
  5
62997
102
{ACAD_XDICTIONARY
360
62AB0
102
}
102
{ACAD_REACTORS
330
62995
102
}
330
62995
100
AcDbPlotSettings
  1

  2
none_device
  4

  6

 40
0.0
 41
0.0
 42
0.0
 43
0.0
 44
0.0
 45
0.0
 46
0.0
 47
0.0
 48
0.0
 49
0.0
140
0.0
141
0.0
142
1.0
143
1.0
 70
   688
 72
     0
 73
     0
 74
     5
  7

 75
    16
147
1.0
148
0.0
149
0.0
100
AcDbLayout
  1
Layout1
 70
     1
 71
     1
 10
0.0
 20
0.0
 11
12.0
 21
9.0
 12
0.0
 22
0.0
 32
0.0
 14
1.000000000000000E+20
 24
1.000000000000000E+20
 34
1.000000000000000E+20
 15
-1.000000000000000E+20
 25
-1.000000000000000E+20
 35
-1.000000000000000E+20
146
0.0
 13
0.0
 23
0.0
 33
0.0
 16
1.0
 26
0.0
 36
0.0
 17
0.0
 27
1.0
 37
0.0
 76
     0
330
407
  0
LAYOUT
  5
62996
102
{ACAD_XDICTIONARY
360
62AAE
102
}
102
{ACAD_REACTORS
330
62995
102
}
330
62995
100
AcDbPlotSettings
  1

  2
none_device
  4
Letter_(8.50_x_11.00_Inches)
  6

 40
6.349999904632567
 41
6.349999904632567
 42
6.350006103515625
 43
6.350006103515625
 44
215.8999938964844
 45
279.3999938964844
 46
0.0
 47
0.0
 48
0.0
 49
0.0
140
0.0
141
0.0
142
1.0
143
1.0
 70
 15024
 72
     0
 73
     1
 74
     5
  7

 75
    16
147
1.0
148
0.0
149
0.0
100
AcDbLayout
  1
Model
 70
     1
 71
     0
 10
0.0
 20
0.0
 11
0.0
 21
0.0
 12
0.0
 22
0.0
 32
0.0
 14
0.0
 24
0.0
 34
0.0
 15
0.0
 25
0.0
 35
0.0
146
0.0
 13
0.0
 23
0.0
 33
0.0
 16
1.0
 26
0.0
 36
0.0
 17
0.0
 27
1.0
 37
0.0
 76
     0
330
406
331
191
1001
ACAD_PSEXT
1000
なし
1000
なし
1000
適切ではありません
1000
新しいプロッタ環境設定名を選択しない限り、レイアウトは印刷されません。
1070
     0
  0
MATERIAL
  5
62A14
102
{ACAD_XDICTIONARY
360
62A15
102
}
102
{ACAD_REACTORS
330
62A0B
102
}
330
62A0B
100
AcDbMaterial
  1
ByBlock
 72
     0
 43
0.0208333333333333
 43
0.0
 43
0.0
 43
0.0
 43
0.0
 43
0.0208333333333333
 43
0.0
 43
0.0
 43
0.0
 43
0.0
 43
1.0
 43
0.0
 43
0.0
 43
0.0
 43
0.0
 43
1.0
 77
     0
 47
0.0208333333333333
 47
0.0
 47
0.0
 47
0.0
 47
0.0
 47
0.0208333333333333
 47
0.0
 47
0.0
 47
0.0
 47
0.0
 47
1.0
 47
0.0
 47
0.0
 47
0.0
 47
0.0
 47
1.0
171
     0
 49
0.0208333333333333
 49
0.0
 49
0.0
 49
0.0
 49
0.0
 49
0.0208333333333333
 49
0.0
 49
0.0
 49
0.0
 49
0.0
 49
1.0
 49
0.0
 49
0.0
 49
0.0
 49
0.0
 49
1.0
175
     0
142
0.0208333333333333
142
0.0
142
0.0
142
0.0
142
0.0
142
0.0208333333333333
142
0.0
142
0.0
142
0.0
142
0.0
142
1.0
142
0.0
142
0.0
142
0.0
142
0.0
142
1.0
179
     0
144
0.0208333333333333
144
0.0
144
0.0
144
0.0
144
0.0
144
0.0208333333333333
144
0.0
144
0.0
144
0.0
144
0.0
144
1.0
144
0.0
144
0.0
144
0.0
144
0.0
144
1.0
147
0.0208333333333333
147
0.0
147
0.0
147
0.0
147
0.0
147
0.0208333333333333
147
0.0
147
0.0
147
0.0
147
0.0
147
1.0
147
0.0
147
0.0
147
0.0
147
0.0
147
1.0
  0
MATERIAL
  5
62A0C
102
{ACAD_XDICTIONARY
360
62A0D
102
}
102
{ACAD_REACTORS
330
62A0B
102
}
330
62A0B
100
AcDbMaterial
  1
ByLayer
 72
     0
 43
0.0208333333333333
 43
0.0
 43
0.0
 43
0.0
 43
0.0
 43
0.0208333333333333
 43
0.0
 43
0.0
 43
0.0
 43
0.0
 43
1.0
 43
0.0
 43
0.0
 43
0.0
 43
0.0
 43
1.0
 77
     0
 47
0.0208333333333333
 47
0.0
 47
0.0
 47
0.0
 47
0.0
 47
0.0208333333333333
 47
0.0
 47
0.0
 47
0.0
 47
0.0
 47
1.0
 47
0.0
 47
0.0
 47
0.0
 47
0.0
 47
1.0
171
     0
 49
0.0208333333333333
 49
0.0
 49
0.0
 49
0.0
 49
0.0
 49
0.0208333333333333
 49
0.0
 49
0.0
 49
0.0
 49
0.0
 49
1.0
 49
0.0
 49
0.0
 49
0.0
 49
0.0
 49
1.0
175
     0
142
0.0208333333333333
142
0.0
142
0.0
142
0.0
142
0.0
142
0.0208333333333333
142
0.0
142
0.0
142
0.0
142
0.0
142
1.0
142
0.0
142
0.0
142
0.0
142
0.0
142
1.0
179
     0
144
0.0208333333333333
144
0.0
144
0.0
144
0.0
144
0.0
144
0.0208333333333333
144
0.0
144
0.0
144
0.0
144
0.0
144
1.0
144
0.0
144
0.0
144
0.0
144
0.0
144
1.0
147
0.0208333333333333
147
0.0
147
0.0
147
0.0
147
0.0
147
0.0208333333333333
147
0.0
147
0.0
147
0.0
147
0.0
147
1.0
147
0.0
147
0.0
147
0.0
147
0.0
147
1.0
  0
MATERIAL
  5
62A1C
102
{ACAD_XDICTIONARY
360
62A1D
102
}
102
{ACAD_REACTORS
330
62A0B
102
}
330
62A0B
100
AcDbMaterial
  1
Global
 72
     0
 43
0.0208333333333333
 43
0.0
 43
0.0
 43
0.0
 43
0.0
 43
0.0208333333333333
 43
0.0
 43
0.0
 43
0.0
 43
0.0
 43
1.0
 43
0.0
 43
0.0
 43
0.0
 43
0.0
 43
1.0
 77
     0
 47
0.0208333333333333
 47
0.0
 47
0.0
 47
0.0
 47
0.0
 47
0.0208333333333333
 47
0.0
 47
0.0
 47
0.0
 47
0.0
 47
1.0
 47
0.0
 47
0.0
 47
0.0
 47
0.0
 47
1.0
171
     0
 49
0.0208333333333333
 49
0.0
 49
0.0
 49
0.0
 49
0.0
 49
0.0208333333333333
 49
0.0
 49
0.0
 49
0.0
 49
0.0
 49
1.0
 49
0.0
 49
0.0
 49
0.0
 49
0.0
 49
1.0
175
     0
142
0.0208333333333333
142
0.0
142
0.0
142
0.0
142
0.0
142
0.0208333333333333
142
0.0
142
0.0
142
0.0
142
0.0
142
1.0
142
0.0
142
0.0
142
0.0
142
0.0
142
1.0
179
     0
144
0.0208333333333333
144
0.0
144
0.0
144
0.0
144
0.0
144
0.0208333333333333
144
0.0
144
0.0
144
0.0
144
0.0
144
1.0
144
0.0
144
0.0
144
0.0
144
0.0
144
1.0
147
0.0208333333333333
147
0.0
147
0.0
147
0.0
147
0.0
147
0.0208333333333333
147
0.0
147
0.0
147
0.0
147
0.0
147
1.0
147
0.0
147
0.0
147
0.0
147
0.0
147
1.0
  0
MLEADERSTYLE
  5
62A38
102
{ACAD_REACTORS
330
629DC
102
}
330
629DC
100
AcDbMLeaderStyle
170
     2
171
     1
172
     0
 90
        2
 40
0.0
 41
0.0
173
     1
 91
-1056964608
340
1F5
 92
       -2
290
     1
 42
0.09
291
     1
 43
0.36
  3
Standard
 44
0.18
300

342
201
174
     1
178
     6
175
     1
176
     0
 93
-1056964608
 45
0.18
292
     0
297
     0
 46
0.18
 94
-1056964608
 47
1.0
 49
1.0
140
1.0
293
     1
141
0.0
294
     1
177
     0
142
1.0
295
     0
296
     0
143
0.125
1001
ACAD_MLEADERVER
1070
     2
  0
MLINESTYLE
  5
13
330
E
100
AcDbMlineStyle
  2
STANDARD
 70
     0
  3

 62
   256
 51
90.0
 52
90.0
 71
     0
  0
ACDBPLACEHOLDER
  5
62A3B
102
{ACAD_REACTORS
330
62A09
102
}
330
62A09
  0
ACDBPLACEHOLDER
  5
62A0A
102
{ACAD_REACTORS
330
62A09
102
}
330
62A09
  0
SCALE
  5
62999
102
{ACAD_REACTORS
330
62998
102
}
330
62998
100
AcDbScale
 70
     0
300
1:1
140
1.0
141
1.0
290
     1
  0
SCALE
  5
6299A
102
{ACAD_REACTORS
330
62998
102
}
330
62998
100
AcDbScale
 70
     0
300
1:2
140
1.0
141
2.0
290
     0
  0
SCALE
  5
6299B
102
{ACAD_REACTORS
330
62998
102
}
330
62998
100
AcDbScale
 70
     0
300
1:4
140
1.0
141
4.0
290
     0
  0
SCALE
  5
6299C
102
{ACAD_REACTORS
330
62998
102
}
330
62998
100
AcDbScale
 70
     0
300
1:5
140
1.0
141
5.0
290
     0
  0
SCALE
  5
6299D
102
{ACAD_REACTORS
330
62998
102
}
330
62998
100
AcDbScale
 70
     0
300
1:8
140
1.0
141
8.0
290
     0
  0
SCALE
  5
6299E
102
{ACAD_REACTORS
330
62998
102
}
330
62998
100
AcDbScale
 70
     0
300
1:10
140
1.0
141
10.0
290
     0
  0
SCALE
  5
6299F
102
{ACAD_REACTORS
330
62998
102
}
330
62998
100
AcDbScale
 70
     0
300
1:16
140
1.0
141
16.0
290
     0
  0
SCALE
  5
629A0
102
{ACAD_REACTORS
330
62998
102
}
330
62998
100
AcDbScale
 70
     0
300
1:20
140
1.0
141
20.0
290
     0
  0
SCALE
  5
629A1
102
{ACAD_REACTORS
330
62998
102
}
330
62998
100
AcDbScale
 70
     0
300
1:30
140
1.0
141
30.0
290
     0
  0
SCALE
  5
629A2
102
{ACAD_REACTORS
330
62998
102
}
330
62998
100
AcDbScale
 70
     0
300
1:40
140
1.0
141
40.0
290
     0
  0
SCALE
  5
629A3
102
{ACAD_REACTORS
330
62998
102
}
330
62998
100
AcDbScale
 70
     0
300
1:50
140
1.0
141
50.0
290
     0
  0
SCALE
  5
629A4
102
{ACAD_REACTORS
330
62998
102
}
330
62998
100
AcDbScale
 70
     0
300
1:100
140
1.0
141
100.0
290
     0
  0
SCALE
  5
629A5
102
{ACAD_REACTORS
330
62998
102
}
330
62998
100
AcDbScale
 70
     0
300
2:1
140
2.0
141
1.0
290
     0
  0
SCALE
  5
629A6
102
{ACAD_REACTORS
330
62998
102
}
330
62998
100
AcDbScale
 70
     0
300
4:1
140
4.0
141
1.0
290
     0
  0
SCALE
  5
629A7
102
{ACAD_REACTORS
330
62998
102
}
330
62998
100
AcDbScale
 70
     0
300
8:1
140
8.0
141
1.0
290
     0
  0
SCALE
  5
629A8
102
{ACAD_REACTORS
330
62998
102
}
330
62998
100
AcDbScale
 70
     0
300
10:1
140
10.0
141
1.0
290
     0
  0
SCALE
  5
629A9
102
{ACAD_REACTORS
330
62998
102
}
330
62998
100
AcDbScale
 70
     0
300
100:1
140
100.0
141
1.0
290
     0
  0
SCALE
  5
629AA
102
{ACAD_REACTORS
330
62998
102
}
330
62998
100
AcDbScale
 70
     0
300
1/128" = 1'-0"
140
0.0078125
141
12.0
290
     0
  0
SCALE
  5
629AB
102
{ACAD_REACTORS
330
62998
102
}
330
62998
100
AcDbScale
 70
     0
300
1/64" = 1'-0"
140
0.015625
141
12.0
290
     0
  0
SCALE
  5
629AC
102
{ACAD_REACTORS
330
62998
102
}
330
62998
100
AcDbScale
 70
     0
300
1/32" = 1'-0"
140
0.03125
141
12.0
290
     0
  0
SCALE
  5
629AD
102
{ACAD_REACTORS
330
62998
102
}
330
62998
100
AcDbScale
 70
     0
300
1/16" = 1'-0"
140
0.0625
141
12.0
290
     0
  0
SCALE
  5
629AE
102
{ACAD_REACTORS
330
62998
102
}
330
62998
100
AcDbScale
 70
     0
300
3/32" = 1'-0"
140
0.09375
141
12.0
290
     0
  0
SCALE
  5
629AF
102
{ACAD_REACTORS
330
62998
102
}
330
62998
100
AcDbScale
 70
     0
300
1/8" = 1'-0"
140
0.125
141
12.0
290
     0
  0
SCALE
  5
629B0
102
{ACAD_REACTORS
330
62998
102
}
330
62998
100
AcDbScale
 70
     0
300
3/16" = 1'-0"
140
0.1875
141
12.0
290
     0
  0
SCALE
  5
629B1
102
{ACAD_REACTORS
330
62998
102
}
330
62998
100
AcDbScale
 70
     0
300
1/4" = 1'-0"
140
0.25
141
12.0
290
     0
  0
SCALE
  5
629B2
102
{ACAD_REACTORS
330
62998
102
}
330
62998
100
AcDbScale
 70
     0
300
3/8" = 1'-0"
140
0.375
141
12.0
290
     0
  0
SCALE
  5
629B3
102
{ACAD_REACTORS
330
62998
102
}
330
62998
100
AcDbScale
 70
     0
300
1/2" = 1'-0"
140
0.5
141
12.0
290
     0
  0
SCALE
  5
629B4
102
{ACAD_REACTORS
330
62998
102
}
330
62998
100
AcDbScale
 70
     0
300
3/4" = 1'-0"
140
0.75
141
12.0
290
     0
  0
SCALE
  5
629B5
102
{ACAD_REACTORS
330
62998
102
}
330
62998
100
AcDbScale
 70
     0
300
1" = 1'-0"
140
1.0
141
12.0
290
     0
  0
SCALE
  5
629B6
102
{ACAD_REACTORS
330
62998
102
}
330
62998
100
AcDbScale
 70
     0
300
1-1/2" = 1'-0"
140
1.5
141
12.0
290
     0
  0
SCALE
  5
629B7
102
{ACAD_REACTORS
330
62998
102
}
330
62998
100
AcDbScale
 70
     0
300
3" = 1'-0"
140
3.0
141
12.0
290
     0
  0
SCALE
  5
629B8
102
{ACAD_REACTORS
330
62998
102
}
330
62998
100
AcDbScale
 70
     0
300
6" = 1'-0"
140
6.0
141
12.0
290
     0
  0
SCALE
  5
629B9
102
{ACAD_REACTORS
330
62998
102
}
330
62998
100
AcDbScale
 70
     0
300
1'-0" = 1'-0"
140
12.0
141
12.0
290
     0
  0
TABLESTYLE
  5
62A37
102
{ACAD_XDICTIONARY
360
62A41
102
}
102
{ACAD_REACTORS
330
62A36
102
}
330
62A36
100
AcDbTableStyle
  3
Standard
 70
     0
 71
     0
 40
0.06
 41
0.06
280
     0
281
     0
  7
STANDARD
140
0.18
170
     2
 62
     0
 63
     7
283
     0
274
    -2
284
     1
 64
     0
275
    -2
285
     1
 65
     0
276
    -2
286
     1
 66
     0
277
    -2
287
     1
 67
     0
278
    -2
288
     1
 68
     0
279
    -2
289
     1
 69
     0
  7
STANDARD
140
0.25
170
     5
 62
     0
 63
     7
283
     0
274
    -2
284
     1
 64
     0
275
    -2
285
     1
 65
     0
276
    -2
286
     1
 66
     0
277
    -2
287
     1
 67
     0
278
    -2
288
     1
 68
     0
279
    -2
289
     1
 69
     0
  7
STANDARD
140
0.18
170
     5
 62
     0
 63
     7
283
     0
274
    -2
284
     1
 64
     0
275
    -2
285
     1
 65
     0
276
    -2
286
     1
 66
     0
277
    -2
287
     1
 67
     0
278
    -2
288
     1
 68
     0
279
    -2
289
     1
 69
     0
  0
VISUALSTYLE
  5
62A2A
102
{ACAD_REACTORS
330
62A24
102
}
330
62A24
100
AcDbVisualStyle
  2
2dWireframe
 70
     4
 71
     0
 72
     2
 73
     0
 90
        0
 40
-0.6
 41
-30.0
 62
     5
 63
     7
 74
     1
 91
        4
 64
     7
 65
   257
 75
     1
175
     1
 42
1.0
 92
        0
 66
   257
 43
1.0
 76
     1
 77
     6
 78
     2
 67
     7
 79
     5
170
     0
171
     0
290
     0
174
     0
 93
        1
 44
0.0
173
     0
291
     0
 45
0.0
1001
ACAD
1000
AcDbSavedByObjectVersion
1070
     0
1000
AcDbSavedByObjectVersion
1070
     0
  0
VISUALSTYLE
  5
62A2C
102
{ACAD_REACTORS
330
62A24
102
}
330
62A24
100
AcDbVisualStyle
  2
3D Hidden
 70
     6
 71
     1
 72
     2
 73
     2
 90
        0
 40
-0.6
 41
-30.0
 62
     5
 63
     7
 74
     2
 91
        2
 64
     7
 65
   257
 75
     2
175
     1
 42
40.0
 92
        0
 66
   257
 43
1.0
 76
     1
 77
     6
 78
     2
 67
     7
 79
     3
170
     0
171
     0
290
     0
174
     0
 93
        1
 44
0.0
173
     0
291
     0
 45
0.0
1001
ACAD
1000
AcDbSavedByObjectVersion
1070
     0
1000
AcDbSavedByObjectVersion
1070
     0
  0
VISUALSTYLE
  5
62A2B
102
{ACAD_REACTORS
330
62A24
102
}
330
62A24
100
AcDbVisualStyle
  2
3dWireframe
 70
     5
 71
     0
 72
     2
 73
     0
 90
        0
 40
-0.6
 41
-30.0
 62
     5
 63
     7
 74
     1
 91
        4
 64
     7
 65
   257
 75
     1
175
     1
 42
1.0
 92
        0
 66
   257
 43
1.0
 76
     1
 77
     6
 78
     2
 67
     7
 79
     5
170
     0
171
     0
290
     0
174
     0
 93
        1
 44
0.0
173
     0
291
     0
 45
0.0
1001
ACAD
1000
AcDbSavedByObjectVersion
1070
     0
1000
AcDbSavedByObjectVersion
1070
     0
  0
VISUALSTYLE
  5
62A29
102
{ACAD_REACTORS
330
62A24
102
}
330
62A24
100
AcDbVisualStyle
  2
Basic
 70
     7
 71
     1
 72
     0
 73
     1
 90
        0
 40
-0.6
 41
-30.0
 62
     5
 63
     7
 74
     0
 91
        4
 64
     7
 65
   257
 75
     1
175
     1
 42
1.0
 92
        8
 66
     7
 43
1.0
 76
     1
 77
     6
 78
     2
 67
     7
 79
     5
170
     0
171
     0
290
     0
174
     0
 93
        1
 44
0.0
173
     0
291
     1
 45
0.0
1001
ACAD
1000
AcDbSavedByObjectVersion
1070
     0
1000
AcDbSavedByObjectVersion
1070
     0
  0
VISUALSTYLE
  5
62A30
102
{ACAD_REACTORS
330
62A24
102
}
330
62A24
100
AcDbVisualStyle
  2
Brighten
 70
    12
 71
     2
 72
     2
 73
     0
 90
        0
 40
-0.6
 41
-30.0
 62
     5
 63
     7
 74
     1
 91
        4
 64
     7
 65
   257
 75
     1
175
     1
 42
1.0
 92
        8
 66
     7
 43
1.0
 76
     1
 77
     6
 78
     2
 67
     7
 79
     5
170
     0
171
     0
290
     0
174
     0
 93
        1
 44
50.0
173
     0
291
     1
 45
0.0
1001
ACAD
1000
AcDbSavedByObjectVersion
1070
     0
1000
AcDbSavedByObjectVersion
1070
     0
  0
VISUALSTYLE
  5
62A34
102
{ACAD_REACTORS
330
62A24
102
}
330
62A24
100
AcDbVisualStyle
  2
ColorChange
 70
    16
 71
     2
 72
     2
 73
     3
 90
        0
 40
-0.6
 41
-30.0
 62
     5
 63
     8
 74
     1
 91
        4
 64
     7
 65
   257
 75
     1
175
     1
 42
1.0
 92
        8
 66
     8
 43
1.0
 76
     1
 77
     6
 78
     2
 67
     7
 79
     5
170
     0
171
     0
290
     0
174
     0
 93
        1
 44
0.0
173
     0
291
     1
 45
0.0
1001
ACAD
1000
AcDbSavedByObjectVersion
1070
     0
1000
AcDbSavedByObjectVersion
1070
     0
  0
VISUALSTYLE
  5
62A2D
102
{ACAD_REACTORS
330
62A24
102
}
330
62A24
100
AcDbVisualStyle
  2
Conceptual
 70
     9
 71
     3
 72
     2
 73
     0
 90
        0
 40
-0.6
 41
-30.0
 62
     5
 63
     7
 74
     2
 91
        2
 64
     7
 65
   257
 75
     1
175
     1
 42
40.0
 92
        8
 66
     7
 43
1.0
 76
     1
 77
     6
 78
     2
 67
     7
 79
     3
170
     0
171
     0
290
     0
174
     0
 93
        1
 44
0.0
173
     0
291
     0
 45
0.0
1001
ACAD
1000
AcDbSavedByObjectVersion
1070
     0
1000
AcDbSavedByObjectVersion
1070
     0
  0
VISUALSTYLE
  5
62A2F
102
{ACAD_REACTORS
330
62A24
102
}
330
62A24
100
AcDbVisualStyle
  2
Dim
 70
    11
 71
     2
 72
     2
 73
     0
 90
        0
 40
-0.6
 41
-30.0
 62
     5
 63
     7
 74
     1
 91
        4
 64
     7
 65
   257
 75
     1
175
     1
 42
1.0
 92
        8
 66
     7
 43
1.0
 76
     1
 77
     6
 78
     2
 67
     7
 79
     5
170
     0
171
     0
290
     0
174
     0
 93
        1
 44
-50.0
173
     0
291
     1
 45
0.0
1001
ACAD
1000
AcDbSavedByObjectVersion
1070
     0
1000
AcDbSavedByObjectVersion
1070
     0
  0
VISUALSTYLE
  5
62A33
102
{ACAD_REACTORS
330
62A24
102
}
330
62A24
100
AcDbVisualStyle
  2
Facepattern
 70
    15
 71
     2
 72
     2
 73
     0
 90
        0
 40
-0.6
 41
-30.0
 62
     5
 63
     7
 74
     1
 91
        4
 64
     7
 65
   257
 75
     1
175
     1
 42
1.0
 92
        8
 66
     7
 43
1.0
 76
     1
 77
     6
 78
     2
 67
     7
 79
     5
170
     0
171
     0
290
     0
174
     0
 93
        1
 44
0.0
173
     0
291
     1
 45
0.0
1001
ACAD
1000
AcDbSavedByObjectVersion
1070
     0
1000
AcDbSavedByObjectVersion
1070
     0
  0
VISUALSTYLE
  5
62A25
102
{ACAD_REACTORS
330
62A24
102
}
330
62A24
100
AcDbVisualStyle
  2
Flat
 70
     0
 71
     2
 72
     1
 73
     1
 90
        2
 40
-0.6
 41
30.0
 62
     5
 63
     7
 74
     0
 91
        4
 64
     7
 65
   257
 75
     1
175
     1
 42
1.0
 92
        8
 66
     7
 43
1.0
 76
     1
 77
     6
 78
     2
 67
     7
 79
     5
170
     0
171
     0
290
     0
174
     0
 93
       13
 44
0.0
173
     0
291
     1
 45
0.0
1001
ACAD
1000
AcDbSavedByObjectVersion
1070
     0
1000
AcDbSavedByObjectVersion
1070
     0
  0
VISUALSTYLE
  5
62A26
102
{ACAD_REACTORS
330
62A24
102
}
330
62A24
100
AcDbVisualStyle
  2
FlatWithEdges
 70
     1
 71
     2
 72
     1
 73
     1
 90
        2
 40
-0.6
 41
30.0
 62
     5
 63
     7
 74
     1
 91
        4
 64
     7
 65
   257
 75
     1
175
     1
 42
1.0
 92
        0
 66
   257
 43
1.0
 76
     1
 77
     6
 78
     2
 67
     7
 79
     5
170
     0
171
     0
290
     0
174
     0
 93
       13
 44
0.0
173
     0
291
     1
 45
0.0
1001
ACAD
1000
AcDbSavedByObjectVersion
1070
     0
1000
AcDbSavedByObjectVersion
1070
     0
  0
VISUALSTYLE
  5
62A27
102
{ACAD_REACTORS
330
62A24
102
}
330
62A24
100
AcDbVisualStyle
  2
Gouraud
 70
     2
 71
     2
 72
     2
 73
     1
 90
        2
 40
-0.6
 41
30.0
 62
     5
 63
     7
 74
     0
 91
        4
 64
     7
 65
   257
 75
     1
175
     1
 42
1.0
 92
        0
 66
     7
 43
1.0
 76
     1
 77
     6
 78
     2
 67
     7
 79
     5
170
     0
171
     0
290
     0
174
     0
 93
       13
 44
0.0
173
     0
291
     1
 45
0.0
1001
ACAD
1000
AcDbSavedByObjectVersion
1070
     0
1000
AcDbSavedByObjectVersion
1070
     0
  0
VISUALSTYLE
  5
62A28
102
{ACAD_REACTORS
330
62A24
102
}
330
62A24
100
AcDbVisualStyle
  2
GouraudWithEdges
 70
     3
 71
     2
 72
     2
 73
     1
 90
        2
 40
-0.6
 41
30.0
 62
     5
 63
     7
 74
     1
 91
        4
 64
     7
 65
   257
 75
     1
175
     1
 42
1.0
 92
        0
 66
   257
 43
1.0
 76
     1
 77
     6
 78
     2
 67
     7
 79
     5
170
     0
171
     0
290
     0
174
     0
 93
       13
 44
0.0
173
     0
291
     1
 45
0.0
1001
ACAD
1000
AcDbSavedByObjectVersion
1070
     0
1000
AcDbSavedByObjectVersion
1070
     0
  0
VISUALSTYLE
  5
62A32
102
{ACAD_REACTORS
330
62A24
102
}
330
62A24
100
AcDbVisualStyle
  2
Linepattern
 70
    14
 71
     2
 72
     2
 73
     0
 90
        0
 40
-0.6
 41
-30.0
 62
     5
 63
     7
 74
     1
 91
        4
 64
     7
 65
   257
 75
     7
175
     7
 42
1.0
 92
        8
 66
     7
 43
1.0
 76
     1
 77
     6
 78
     2
 67
     7
 79
     5
170
     0
171
     0
290
     0
174
     0
 93
        1
 44
0.0
173
     0
291
     1
 45
0.0
1001
ACAD
1000
AcDbSavedByObjectVersion
1070
     0
1000
AcDbSavedByObjectVersion
1070
     0
  0
VISUALSTYLE
  5
62A2E
102
{ACAD_REACTORS
330
62A24
102
}
330
62A24
100
AcDbVisualStyle
  2
Realistic
 70
     8
 71
     2
 72
     2
 73
     0
 90
        0
 40
-0.6
 41
-30.0
 62
     5
 63
     7
 74
     1
 91
        0
 64
     7
 65
   257
 75
     1
175
     1
 42
1.0
 92
        8
 66
     8
 43
1.0
 76
     1
 77
     6
 78
     2
 67
     7
 79
     5
170
     0
171
     0
290
     0
174
     0
 93
       13
 44
0.0
173
     0
291
     0
 45
0.0
1001
ACAD
1000
AcDbSavedByObjectVersion
1070
     0
1000
AcDbSavedByObjectVersion
1070
     0
  0
VISUALSTYLE
  5
62A31
102
{ACAD_REACTORS
330
62A24
102
}
330
62A24
100
AcDbVisualStyle
  2
Thicken
 70
    13
 71
     2
 72
     2
 73
     0
 90
        0
 40
-0.6
 41
-30.0
 62
     5
 63
     7
 74
     1
 91
        4
 64
     7
 65
   257
 75
     1
175
     1
 42
1.0
 92
       12
 66
     7
 43
1.0
 76
     1
 77
     6
 78
     2
 67
     7
 79
     5
170
     0
171
     0
290
     0
174
     0
 93
        1
 44
0.0
173
     0
291
     1
 45
0.0
1001
ACAD
1000
AcDbSavedByObjectVersion
1070
     0
1000
AcDbSavedByObjectVersion
1070
     0
  0
DICTIONARYVAR
  5
629DD
102
{ACAD_REACTORS
330
629DA
102
}
330
629DA
100
DictionaryVariables
280
     0
  1
1:1
  0
DICTIONARYVAR
  5
62A45
102
{ACAD_REACTORS
330
629DA
102
}
330
629DA
100
DictionaryVariables
280
     0
  1
STANDARD
  0
DICTIONARYVAR
  5
62A44
102
{ACAD_REACTORS
330
629DA
102
}
330
629DA
100
DictionaryVariables
280
     0
  1
STANDARD
  0
DICTIONARYVAR
  5
62A84
102
{ACAD_REACTORS
330
629DA
102
}
330
629DA
100
DictionaryVariables
280
     0
  1
1
  0
DICTIONARYVAR
  5
62A83
102
{ACAD_REACTORS
330
629DA
102
}
330
629DA
100
DictionaryVariables
280
     0
  1
0
  0
DICTIONARYVAR
  5
62A48
102
{ACAD_REACTORS
330
629DA
102
}
330
629DA
100
DictionaryVariables
280
     0
  1
1
  0
DICTIONARYVAR
  5
62A49
102
{ACAD_REACTORS
330
629DA
102
}
330
629DA
100
DictionaryVariables
280
     0
  1
15
  0
DICTIONARYVAR
  5
62A47
102
{ACAD_REACTORS
330
629DA
102
}
330
629DA
100
DictionaryVariables
280
     0
  1
0
  0
DICTIONARYVAR
  5
62A46
102
{ACAD_REACTORS
330
629DA
102
}
330
629DA
100
DictionaryVariables
280
     0
  1
0
  0
DICTIONARYVAR
  5
62A82
102
{ACAD_REACTORS
330
629DA
102
}
330
629DA
100
DictionaryVariables
280
     0
  1
127
  0
DICTIONARY
  5
62AB0
330
62997
100
AcDbDictionary
280
     1
281
     1
  3
ACAD_XREC_ROUNDTRIP
360
62AB1
  0
DICTIONARY
  5
62AAE
330
62996
100
AcDbDictionary
280
     1
281
     1
  3
ACAD_XREC_ROUNDTRIP
360
62AAF
  0
DICTIONARY
  5
62A15
330
62A14
100
AcDbDictionary
280
     1
281
     1
  3
ACAD_XREC_ROUNDTRIP
360
62A9E
  3
BUMPTILE
360
62A17
  3
DIFFUSETILE
360
62A16
  3
OPACITYTILE
360
62A1A
  3
REFLECTIONTILE
360
62A19
  3
REFRACTIONTILE
360
62A1B
  3
SPECULARTILE
360
62A18
  0
DICTIONARY
  5
62A0D
330
62A0C
100
AcDbDictionary
280
     1
281
     1
  3
ACAD_XREC_ROUNDTRIP
360
62A9D
  3
BUMPTILE
360
62A0F
  3
DIFFUSETILE
360
62A0E
  3
OPACITYTILE
360
62A12
  3
REFLECTIONTILE
360
62A11
  3
REFRACTIONTILE
360
62A13
  3
SPECULARTILE
360
62A10
  0
DICTIONARY
  5
62A1D
330
62A1C
100
AcDbDictionary
280
     1
281
     1
  3
ACAD_XREC_ROUNDTRIP
360
62A9F
  3
BUMPTILE
360
62A1F
  3
DIFFUSETILE
360
62A1E
  3
OPACITYTILE
360
62A22
  3
REFLECTIONTILE
360
62A21
  3
REFRACTIONTILE
360
62A23
  3
SPECULARTILE
360
62A20
  0
DICTIONARY
  5
62A41
330
62A37
100
AcDbDictionary
280
     1
281
     1
  3
ACAD_ROUNDTRIP_2008_TABLESTYLE_CELLSTYLEMAP
360
62AAC
  3
ACAD_XREC_ROUNDTRIP
360
62AB2
  0
XRECORD
  5
62AB1
102
{ACAD_REACTORS
330
62AB0
102
}
330
62AB0
100
AcDbXrecord
280
     1
102
SHADEPLOT
 70
     0
102
SHADEPLOTRESLEVEL
 70
     2
102
SHADEPLOTCUSTOMDPI
 70
   300
  0
XRECORD
  5
62AAF
102
{ACAD_REACTORS
330
62AAE
102
}
330
62AAE
100
AcDbXrecord
280
     1
102
SHADEPLOT
 70
     0
102
SHADEPLOTRESLEVEL
 70
     2
102
SHADEPLOTCUSTOMDPI
 70
   300
  0
XRECORD
  5
62A9E
102
{ACAD_REACTORS
330
62A15
102
}
330
62A15
100
AcDbXrecord
280
     1
102
MATERIAL
148
0.0
149
0.0
149
0.0
 93
        0
 94
      127
282
     0
 72
     0
 77
     0
171
     0
175
     0
179
     0
273
     0
  0
XRECORD
  5
62A17
102
{ACAD_REACTORS
330
62A15
102
}
330
62A15
100
AcDbXrecord
280
     1
270
     1
271
     1
  0
XRECORD
  5
62A16
102
{ACAD_REACTORS
330
62A15
102
}
330
62A15
100
AcDbXrecord
280
     1
270
     1
271
     1
  0
XRECORD
  5
62A1A
102
{ACAD_REACTORS
330
62A15
102
}
330
62A15
100
AcDbXrecord
280
     1
270
     1
271
     1
  0
XRECORD
  5
62A19
102
{ACAD_REACTORS
330
62A15
102
}
330
62A15
100
AcDbXrecord
280
     1
270
     1
271
     1
  0
XRECORD
  5
62A1B
102
{ACAD_REACTORS
330
62A15
102
}
330
62A15
100
AcDbXrecord
280
     1
270
     1
271
     1
  0
XRECORD
  5
62A18
102
{ACAD_REACTORS
330
62A15
102
}
330
62A15
100
AcDbXrecord
280
     1
270
     1
271
     1
  0
XRECORD
  5
62A9D
102
{ACAD_REACTORS
330
62A0D
102
}
330
62A0D
100
AcDbXrecord
280
     1
102
MATERIAL
148
0.0
149
0.0
149
0.0
 93
        0
 94
      127
282
     0
 72
     0
 77
     0
171
     0
175
     0
179
     0
273
     0
  0
XRECORD
  5
62A0F
102
{ACAD_REACTORS
330
62A0D
102
}
330
62A0D
100
AcDbXrecord
280
     1
270
     1
271
     1
  0
XRECORD
  5
62A0E
102
{ACAD_REACTORS
330
62A0D
102
}
330
62A0D
100
AcDbXrecord
280
     1
270
     1
271
     1
  0
XRECORD
  5
62A12
102
{ACAD_REACTORS
330
62A0D
102
}
330
62A0D
100
AcDbXrecord
280
     1
270
     1
271
     1
  0
XRECORD
  5
62A11
102
{ACAD_REACTORS
330
62A0D
102
}
330
62A0D
100
AcDbXrecord
280
     1
270
     1
271
     1
  0
XRECORD
  5
62A13
102
{ACAD_REACTORS
330
62A0D
102
}
330
62A0D
100
AcDbXrecord
280
     1
270
     1
271
     1
  0
XRECORD
  5
62A10
102
{ACAD_REACTORS
330
62A0D
102
}
330
62A0D
100
AcDbXrecord
280
     1
270
     1
271
     1
  0
XRECORD
  5
62A9F
102
{ACAD_REACTORS
330
62A1D
102
}
330
62A1D
100
AcDbXrecord
280
     1
102
MATERIAL
148
0.0
149
0.0
149
0.0
 93
        0
 94
      127
282
     0
 72
     0
 77
     0
171
     0
175
     0
179
     0
273
     0
  0
XRECORD
  5
62A1F
102
{ACAD_REACTORS
330
62A1D
102
}
330
62A1D
100
AcDbXrecord
280
     1
270
     1
271
     1
  0
XRECORD
  5
62A1E
102
{ACAD_REACTORS
330
62A1D
102
}
330
62A1D
100
AcDbXrecord
280
     1
270
     1
271
     1
  0
XRECORD
  5
62A22
102
{ACAD_REACTORS
330
62A1D
102
}
330
62A1D
100
AcDbXrecord
280
     1
270
     1
271
     1
  0
XRECORD
  5
62A21
102
{ACAD_REACTORS
330
62A1D
102
}
330
62A1D
100
AcDbXrecord
280
     1
270
     1
271
     1
  0
XRECORD
  5
62A23
102
{ACAD_REACTORS
330
62A1D
102
}
330
62A1D
100
AcDbXrecord
280
     1
270
     1
271
     1
  0
XRECORD
  5
62A20
102
{ACAD_REACTORS
330
62A1D
102
}
330
62A1D
100
AcDbXrecord
280
     1
270
     1
271
     1
  0
CELLSTYLEMAP
  5
62AAC
102
{ACAD_REACTORS
330
62A41
102
}
330
62A41
100
AcDbCellStyleMap
 90
        3
300
CELLSTYLE
  1
TABLEFORMAT_BEGIN
 90
        5
170
     1
 91
        0
 92
    32768
 62
   257
 93
        1
300
CONTENTFORMAT
  1
CONTENTFORMAT_BEGIN
 90
        0
 91
        0
 92
      512
 93
        0
300

 40
0.0
140
1.0
 94
        5
 62
     0
340
201
144
0.25
309
CONTENTFORMAT_END
171
     1
301
MARGIN
  1
CELLMARGIN_BEGIN
 40
0.06
 40
0.06
 40
0.06
 40
0.06
 40
0.18
 40
0.18
309
CELLMARGIN_END
 94
        6
 95
        1
302
GRIDFORMAT
  1
GRIDFORMAT_BEGIN
 90
        0
 91
        1
 62
     0
 92
       -2
340
0
 93
        0
 40
0.045
309
GRIDFORMAT_END
 95
        2
302
GRIDFORMAT
  1
GRIDFORMAT_BEGIN
 90
        0
 91
        1
 62
     0
 92
       -2
340
0
 93
        0
 40
0.045
309
GRIDFORMAT_END
 95
        4
302
GRIDFORMAT
  1
GRIDFORMAT_BEGIN
 90
        0
 91
        1
 62
     0
 92
       -2
340
0
 93
        0
 40
0.045
309
GRIDFORMAT_END
 95
        8
302
GRIDFORMAT
  1
GRIDFORMAT_BEGIN
 90
        0
 91
        1
 62
     0
 92
       -2
340
0
 93
        0
 40
0.045
309
GRIDFORMAT_END
 95
       16
302
GRIDFORMAT
  1
GRIDFORMAT_BEGIN
 90
        0
 91
        1
 62
     0
 92
       -2
340
0
 93
        0
 40
0.045
309
GRIDFORMAT_END
 95
       32
302
GRIDFORMAT
  1
GRIDFORMAT_BEGIN
 90
        0
 91
        1
 62
     0
 92
       -2
340
0
 93
        0
 40
0.045
309
GRIDFORMAT_END
309
TABLEFORMAT_END
  1
CELLSTYLE_BEGIN
 90
        1
 91
        1
300
_TITLE
309
CELLSTYLE_END
300
CELLSTYLE
  1
TABLEFORMAT_BEGIN
 90
        5
170
     1
 91
        0
 92
        0
 62
   257
 93
        1
300
CONTENTFORMAT
  1
CONTENTFORMAT_BEGIN
 90
        0
 91
        0
 92
      512
 93
        0
300

 40
0.0
140
1.0
 94
        5
 62
     0
340
201
144
0.18
309
CONTENTFORMAT_END
171
     1
301
MARGIN
  1
CELLMARGIN_BEGIN
 40
0.06
 40
0.06
 40
0.06
 40
0.06
 40
0.18
 40
0.18
309
CELLMARGIN_END
 94
        6
 95
        1
302
GRIDFORMAT
  1
GRIDFORMAT_BEGIN
 90
        0
 91
        1
 62
     0
 92
       -2
340
0
 93
        0
 40
0.045
309
GRIDFORMAT_END
 95
        2
302
GRIDFORMAT
  1
GRIDFORMAT_BEGIN
 90
        0
 91
        1
 62
     0
 92
       -2
340
0
 93
        0
 40
0.045
309
GRIDFORMAT_END
 95
        4
302
GRIDFORMAT
  1
GRIDFORMAT_BEGIN
 90
        0
 91
        1
 62
     0
 92
       -2
340
0
 93
        0
 40
0.045
309
GRIDFORMAT_END
 95
        8
302
GRIDFORMAT
  1
GRIDFORMAT_BEGIN
 90
        0
 91
        1
 62
     0
 92
       -2
340
0
 93
        0
 40
0.045
309
GRIDFORMAT_END
 95
       16
302
GRIDFORMAT
  1
GRIDFORMAT_BEGIN
 90
        0
 91
        1
 62
     0
 92
       -2
340
0
 93
        0
 40
0.045
309
GRIDFORMAT_END
 95
       32
302
GRIDFORMAT
  1
GRIDFORMAT_BEGIN
 90
        0
 91
        1
 62
     0
 92
       -2
340
0
 93
        0
 40
0.045
309
GRIDFORMAT_END
309
TABLEFORMAT_END
  1
CELLSTYLE_BEGIN
 90
        2
 91
        1
300
_HEADER
309
CELLSTYLE_END
300
CELLSTYLE
  1
TABLEFORMAT_BEGIN
 90
        5
170
     1
 91
        0
 92
        0
 62
   257
 93
        1
300
CONTENTFORMAT
  1
CONTENTFORMAT_BEGIN
 90
        0
 91
        0
 92
      512
 93
        0
300

 40
0.0
140
1.0
 94
        2
 62
     0
340
201
144
0.18
309
CONTENTFORMAT_END
171
     1
301
MARGIN
  1
CELLMARGIN_BEGIN
 40
0.06
 40
0.06
 40
0.06
 40
0.06
 40
0.18
 40
0.18
309
CELLMARGIN_END
 94
        6
 95
        1
302
GRIDFORMAT
  1
GRIDFORMAT_BEGIN
 90
        0
 91
        1
 62
     0
 92
       -2
340
0
 93
        0
 40
0.045
309
GRIDFORMAT_END
 95
        2
302
GRIDFORMAT
  1
GRIDFORMAT_BEGIN
 90
        0
 91
        1
 62
     0
 92
       -2
340
0
 93
        0
 40
0.045
309
GRIDFORMAT_END
 95
        4
302
GRIDFORMAT
  1
GRIDFORMAT_BEGIN
 90
        0
 91
        1
 62
     0
 92
       -2
340
0
 93
        0
 40
0.045
309
GRIDFORMAT_END
 95
        8
302
GRIDFORMAT
  1
GRIDFORMAT_BEGIN
 90
        0
 91
        1
 62
     0
 92
       -2
340
0
 93
        0
 40
0.045
309
GRIDFORMAT_END
 95
       16
302
GRIDFORMAT
  1
GRIDFORMAT_BEGIN
 90
        0
 91
        1
 62
     0
 92
       -2
340
0
 93
        0
 40
0.045
309
GRIDFORMAT_END
 95
       32
302
GRIDFORMAT
  1
GRIDFORMAT_BEGIN
 90
        0
 91
        1
 62
     0
 92
       -2
340
0
 93
        0
 40
0.045
309
GRIDFORMAT_END
309
TABLEFORMAT_END
  1
CELLSTYLE_BEGIN
 90
        3
 91
        2
300
_DATA
309
CELLSTYLE_END
  0
XRECORD
  5
62AB2
102
{ACAD_REACTORS
330
62A41
102
}
330
62A41
100
AcDbXrecord
280
     1
102
ACAD_ROUNDTRIP_PRE2007_TABLESTYLE
 90
      512
 91
        0
  1

 92
      512
 93
        0
  2

 94
      512
 95
        0
  3

  0
ENDSEC
  0
EOF
